Onesidezero - Shed The Skin Chords & Tabs

 

Shed The Skin Chords & Tabs

Onesidezero Chords & Tabs

Version: 1 Type: Tab 0 ratings
1 star 2 stars 3 stars 4 stars 5 stars
comments

Shed The Skin Tab


#----------------------------------PLEASE NOTE---------------------------------#
#This file is the author's own work and represents their interpretation of the-#
#song. You may only use this file for private study, scholarship, or research.-#
#---------------This file was downloaded from www.taborama.com-----------------#
#------------------------------------------------------------------------------#


Shed the Skin
Onesidezero

Tabbed by: kris
Email:     kdix77@aol.com
• the best thing to do is listen to the song before playing then it all comes together



- Key
•b - bend
•s - Slide
•h - hammer on
•p - pick off
•x - mute (I do this combination of muting when I play this)

************************************************************************

• Tuning: Drop D

Intro: Played 4 Times
Note: Guitar 2 - Distortion

e|-----------------------------------|
b|-----------------------------------|
g|-----------------------------------|
d|-----------------------------------|
a|--0--x--0--x--2--x--2--3--0--x--2--|
D|--0--x--0--x--2--x--2--3--0--x--2--|


Verse: Played 3 Times
•Note: Guitar 1 - Played with a Delay
•Also: If you play without a delay, use a solid e rhythm when doing it. This helps a lot.

e|-------------------------------------17--------------------------------|
b|--10--13--17--9--13--17--10--13--17------17--13--17--13--12--12h13p12--|
g|-----------------------------------------------------------------------|
d|-----------------------------------------------------------------------|
a|-----------------------------------------------------------------------|
D|-----------------------------------------------------------------------|


Chorus: Played Twice
•Note: Part 1
•Note: Guitar 1 - Played VERY FAST in Solid E Rhythm

e|-------------------------------------------------------------------------------------------
b|-------------------------------------------------------------------------------------------
g|-------------------------------------------------------------------------------------------
d|-999999999999999--7s99999999--10-10-10-10-12-12-12--77777777--17-17-17-17-16-14-13-13-13-13-15--|
a|-777777777777777--5s77777777--8--8--8--8--10-10-10--55555555--15-15-15-15-14-12-11-11-11-11-13--|
D|-------------------------------------------------------------------------------------------


Chorus: Played Once
•Note: Part 2
•Note: Guitar 2 - Lots of Distortion

e|---------------------------------------|
b|---------------------------------------|
g|---------------------------------------|
d|---------------------------------------|
a|--777777777777777--22222222--33333333--|
D|--777777777777777--22222222--33333333--|


Chorus: Played Twice
•Note: Part 2
•Note: Guitar 2 - Lots of Distortion

e|-----------------------------------|
b|-----------------------------------|
g|-----------------------------------|
d|-----------------------------------|
a|--0--x--0--x--2--x--2--3--0--x--2--|
D|--0--x--0--x--2--x--2--3--0--x--2--|


Verse: Played 1 Time
•Note: Part 1: Guitar 1 - Played with a Delay
•Also: If you play without a delay, use a solid e rhythm when doing it. This helps a lot.

e|-------------------------------------17--------------------------------|
b|--10--13--17--9--13--17--10--13--17------17--13--17--13--12--12h13p12--|
g|-----------------------------------------------------------------------|
d|-----------------------------------------------------------------------|
a|-----------------------------------------------------------------------|
D|-----------------------------------------------------------------------|

Verse: Played 1 Time
•Note: Part 2: Guitar 1 - Played with a Delay
•Also: If you play without a delay, use a solid e rhythm when doing it. This helps a lot.

e|-------------------------------------15h17p15-------------------------------
b|--10--13--17--9--13--17--10--13--17------------12h13p12--12--13--15--13--12-13
g|----------------------------------------------------------------------------
d|----------------------------------------------------------------------------
a|----------------------------------------------------------------------------
D|----------------------------------------------------------------------------


Chorus: Played Twice
•Note: Part 1
•Note: Guitar 1 - Played VERY FAST in Solid E Rhythm

e|------------------------------------------------------------------------------------------------|
b|------------------------------------------------------------------------------------------------|
g|------------------------------------------------------------------------------------------------|
d|-999999999999999--7s99999999--10-10-10-10-12-12-12--77777777--17-17-17-17-16-14-13-13-13-13-15--|
a|-777777777777777--5s77777777--8--8--8--8--10-10-10--55555555--15-15-15-15-14-12-11-11-11-11-13--|
D|------------------------------------------------------------------------------------------------|

[ Tab from: http://www.guitartabs.cc/tabs/o/onesidezero/shed_the_skin_tab.html ]
Chorus: Played Once
•Note: Part 2
•Note: Guitar 2 - Lots of Distortion

e|---------------------------------------------------------------------|  PAUSE
b|---------------------------------------------------------------------|  PAUSE
g|---------------------------------------------------------------------|  PAUSE
d|---------------------------------------------------------------------|  PAUSE
a|--777777777777777--22222222--33333333--0--x--0--x--2--x--2--3--0--x--|  PAUSE
D|--777777777777777--22222222--33333333--0--x--0--x--2--x--2--3--0--x--|  PAUSE





Chorus: Played Eight Times
•Note: Part 3
•Note: Guitar 2 - Lots of Distortion

e|-----------------------------------|
b|-----------------------------------|
g|-----------------------------------|
d|-----------------------------------|
a|--0--x--0--x--2--x--2--3--0--x--2--|
D|--0--x--0--x--2--x--2--3--0--x--2--|


Solo: Played During Chorus Part 3
•Note: Part 3
•Note: Guitar 1

e|--------------|
b|--------6h7b--|
g|--7h8b--------|
d|--------------|
a|--------------|
D|--------------|


Chorus: Played Two Times
•Note: Part 1
•Note: Guitar 1 - Played VERY FAST in Solid E Rhythm

e|------------------------------------------------------------------------------------------------|
b|------------------------------------------------------------------------------------------------|
g|------------------------------------------------------------------------------------------------|
d|-999999999999999--7s99999999--10-10-10-10-12-12-12--77777777--17-17-17-17-16-14-13-13-13-13-15--|
a|-777777777777777--5s77777777--8--8--8--8--10-10-10--55555555--15-15-15-15-14-12-11-11-11-11-13--|
D|------------------------------------------------------------------------------------------------|


Chorus: Played One Time
•Note: Part 2
•Note: Guitar 1 & 2 - Played VERY FAST in Solid E Rhythm
e|---------------------------------------------------------------------------
b|----------------------------------------------------------------------------
g|----------------------------------------------------------------------------
d|-999999999999999--7s99999999--10-10-10-10-12-12-12--77777777--17-17-17-17-16-14-13-13-13-13-15--|
a|-777777777777777--5s77777777--8--8--8--8--10-10-10--55555555--15-15-15-15-14-12-11-11-11-11-13--|
D|----------------------------------------------------------------------------


Chorus: Played Once
•Note: Part 3
•Note: Guitar 2 - Lots of Distortion

e|---------------------------------------|
b|---------------------------------------|
g|---------------------------------------|
d|---------------------------------------|
a|--777777777777777--22222222--33333333--|
D|--777777777777777--22222222--33333333--|


Chorus: Played Four Times
•Note: Part 4
•Note: Guitar 2 - Lots of Distortion

e|-----------------------------------|
b|-----------------------------------|
g|-----------------------------------|
d|-----------------------------------|
a|--0--x--0--x--2--x--2--3--0--x--2--|
D|--0--x--0--x--2--x--2--3--0--x--2--|


Post Chorus: Lots of Distortion
•Note: Guitar 2
•Note: Part 1

e|-----------------------------------------------------|
b|-----------------------------------------------------|
g|-----------------------------------------------------|
d|-----------------------------------------------------|
a|--0--x--0--xx--0-x-00-x-0-x-0-x-00-x-0-x-0-x-00-x-0--|
D|--0--x--0--xx--0-x-00-x-0-x-0-x-00-x-0-x-0-x-00-x-0--|


Post Chorus: Lots of Distortion
•Note: Guitar 2
•Note: Part 2

e|-----------------------------------------------------|
b|-----------------------------------------------------|
g|-----------------------------------------------------|
d|-----------------------------------------------------|
a|--0--x--0--xx--0-x-00-x-0-x-0-x-00-x-0-x-0-x-00------|
D|--0--x--0--xx--0-x-00-x-0-x-0-x-00-x-0-x-0-x-00------|




Lyrics - Taken from Onesidezero.net

Swallow, your eyes
Circle the tired, survive 
Sharing the light we have lost

You might believe that it was so wrong
Forcing us down into
Another belief to carry us home
Forcing us down into 
You wrote the words that we said so wrong
 
Swallow, your rites
Sample the sweetness your life
Show me what it means to be free
 
You might believe that it was so wrong
Forcing us down into
Another belief to carry us home
Forcing us down into 
You wrote the words that we said so wrong
I feel like I've shed my skin
 
We've done it this time
We've lost all self-control
Follow us this time
I wish I could
Imprisoned this time
When will the truth be told
Follow us this time
I wish I could
 
You might believe that it was so wrong
Forcing us down into
Another belief to carry us home
Forcing us down into 
You wrote the words that we said so wrong
Forcing us down into
Another disease that's killing us all
So wrong
I feel like I've shed my skin




Downloaded from www.taborama.com

================================================================================
Comments