Onesidezero - Run Around Chords & Tabs

 

Run Around Chords & Tabs

Onesidezero Chords & Tabs

Version: 1 Type: Tab 0 ratings
1 star 2 stars 3 stars 4 stars 5 stars
comments

Run Around Tab

Song: Run Around
Band: Jasan Radford/Onesidezero (Maverick studios)
Genre: Punk

Tab by: Mikey (riverfenixtx16@aol.com)
This song was used in a couple of japanime cartoons and wasn't
Released on the onesidezero cd.  ENJOY (note this song isn't
Standard tuning. 

Intro guitar 1:
e--7-------7-------7----------------------------------------|
B----5-5-----5-5-----5-5---5-7-5-7-5-7-5--------------------|
G-----------------------------------------------------------|
D-----------------------------------------------------------|
A-----------------------------------------------------------|
E-----------------------------------------------------------|

Intro guitar 2:     Chorus: Both Guitars
e----------------|  -------------------------------------------|
B----------------|  -------------------------------------------|
G-----6---4------|  -------6--4--------9--8--9-----------------|
D-2---6---4---7--|  -2--7--6--4--7--9--x--x--x--7-7-7-9-9-9--2-|
A-2---4---2---7--|  -2--7--4--2--7--9--7--6--7--7-7-7-9-9-9--2-|
E-0-----------5--|  -0--5--------5--7-----------5-5-5-7-7-7--0-|

Guitar 1 sometime during chorus (play chord from high e up):
e-------------|
B-------------|
G--(9)--------|
D---(9)-------| 1x Let ring
A----(7)------|
E-------------|

Solo Guitar 1 (note-a tremolo bar helps a lot):
e-----------------------------------------------------------|
B-16-14-16-14-16-14-16-14-16-14-16p-14h-(16~)---------------|
G-----------------------------------------------------------|
D-----------------------------------------------------------|
A-----------------------------------------------------------|
E-----------------------------------------------------------|
[ Tab from: http://www.guitartabs.cc/tabs/o/onesidezero/run_around_tab.html ]
Guitar 2 during solo              
e-----------------------------------------------------------|
B-----------------------------------------------------------|  
G-----------------------------------------------------------|  
D2-2--2--5--7-2-2--2--5--7----5-----7-----5----7------(2)-| 
A2-2--2--5--7-2-2--2--5--7----5-4x--7-4x--5-4x-7-4x---(2)-|
E0-0--0--3--5-0-0--0--3--5----3-----5-----3----5------(0)-|

Outro guitar 1:
e--7-------7-------7----------------------------------------|
B----5-5-----5-5-----5-5-------5-7-5-7-5-7-5--5-7-5-7-5-7-5-|
G-----------------------------------------------------------|
D-----------------------------------------------------------|
A-----------------------------------------------------------|
E-----------------------------------------------------------|

Outro guitar 2:
e---------------------------|          
B---------------------------|          
G-----6---4--------------/9-|          
D-2---6---4---7---7(2)--/9-|          
A-2---4---2---7---7(2)--/7-|         
E-0---------- 5---5(0)-----|


Lyrics:

Things are starting to accelerate into something never stopping
Always trouble bubbling now I think I'm getting dizzy to much 
Spinning Page by page the plot is thickening quickening its 
Getting to insane I'm trying to maintain...

You run around I run around were all gonna run, run, run around
You run around I run around we all do a run, run, run around

It is getting closer more intense ever spinning twisting 
Turning roller coaster inch by inch the gap is closing pressure
Building temperature rising higher and higher
It's getting too crazy I wish I could maybe...

Run, run baby... run, run baby
Like a rocket...like a rocket...never stopping...you'll never stop it

You run around I run around were all gonna run, run, run around
You run around I run around we all do a run, run, run around

You run around I run around were all gonna run, run, run around
You run around I run around we all do a run, run, run around
Comments