Onesidezero - Paste Chords & Tabs

 

Paste Chords & Tabs

Onesidezero Chords & Tabs

Version: 1 Type: Tab 0 ratings
1 star 2 stars 3 stars 4 stars 5 stars
comments

Paste Tab

Onesidezero- Paste
I dont know how many times they strum these chords but 
they are the right ones... Now the whole song has yet to
be finished but that is what I'am working on.


Play this four times...(Clean)
E--------------------------------------------------------
B--------------------------------------------------------
G--------------------------------------------------------
D--5-5-5-5-5-5-5-5-5-5-5-5--5-5-5-5-5-5-5-5-5-5-5-5------
A--3-3-3-3-3-3-3-3-3-3-3-3--2-2-2-2-2-2-2-2-2-2-0-0------
D--------------------------------------------------------
[ Tab from: http://www.guitartabs.cc/tabs/o/onesidezero/paste_tab.html ]
Play this 3 times clean the once in distortion... 
E---------------------------------------------------------------------
B---------------------------------------------------------------------
G---------------------------------------------------------------------
D---------------------------------------------------------------------
A-2-2-2-2-2-2-2-2--4-4-4-4-4-4-4-4--5-5-5-5-5-5-5-5--7-7-7-7-7-7-9-9--
D-2-2-2-2-2-2-2-2--4-4-4-4-4-4-4-4--5-5-5-5-5-5-5-5--7-7-7-7-7-7-9-9--

Play this four times...(Distortion)
E--------------------------------------------------------
B--------------------------------------------------------
G--------------------------------------------------------
D--5-5-5-5-5-5-5-5-5-5-5-5--5-5-5-5-5-5-5-5-5-5-5-5------
A--3-3-3-3-3-3-3-3-3-3-3-3--2-2-2-2-2-2-2-2-2-2-0-0------
D--------------------------------------------------------

Harmonized Riff after the first bridge...
E--------------------------------------------------------------
B--------------------------------------------------------------
G--------------------------------------------------------------
D-------2s4-5-4-2---------2s4-5-4-2--------2s4--5-4-2----------
A-2--2--------------2--2--------------2--2---------------------
D--------------------------------------------------------------

Thats all I have for right now... I'am Working on "Into a million Pieces"
Sleep Through This, Paste, Brocwurst, and Into a million Pieces  are 
Onesidezeros songs they are just on early EP's.
Comments