Onesidezero - New World Order Chords & Tabs

 

New World Order Chords & Tabs

Onesidezero Chords & Tabs

Version: 2 Type: Tab 0 ratings
1 star 2 stars 3 stars 4 stars 5 stars
comments

New World Order Tab

   
Artist- Onesidezero
Song- New World Order
Tabber- Iconoclast

sd= slide down

Intro/Prechorus
e|----------------------------------------------|
b|----------------------------------------------|
g|---------------------9sd----------------------|
d|-5-5-5-8-4-4-4-4-5-5-x------------------------|
a|-5-5-5-8-4-4-4-4-5-5-7sd----------------------|
D|-5-5-5-8-4-4-4-4-5-5--------------------------|

Verse
e|----------------------------------------------|
b|----------------------------------------------|
g|---------------------9sd--------------------5-|
d|---------------------x----------------------x-|
a|---------------------7sd--------------------3-|
D|-5-5-5-8-4-4-4-4-5-5----5-5-5-8-4-4-4-4-5-5---|
   pm-----------------|   pm-----------------|

Chorus (strumming not shown, when u play it you'll get the idea)
e|----------------------------------|
b|----------------------------------|
g|-10--12--8--7-10--8--12--7--------|
d|--x---x--x--x--x--x---x--x--------|
a|--8--10--6--5--8--6--10--5--------|
D|----------------------------------|
[ Tab from: http://www.guitartabs.cc/tabs/o/onesidezero/new_world_order_tab_ver_2.html ]
After you repeat that a few times you go...

e|------------------|
b|------------------|
g|-6----------------|
d|-6----------------|
a|-4----------------|
D|------------------|

Solo- repeat once (put vibrato on almost all notes)
e|--------------------------------------|
b|-----------------------3-4------------|
g|-5---------5---------5-----5-4--------|
d|---3-3-3-3---2-2-2-2------------------|
a|--------------------------------------|
D|--------------------------------------|

Solo- repeat once
e|---------------------------------------|
b|-3-2-3-5-5b-5h6p5-3-5-3-5-3------------|
g|---------------------------------------|
d|---------------------------------------|
a|---------------------------------------|

e|----------------------------------------|
b|----------------------------------------|
g|----------------------------------------|
d|-5-4-3-2-1-0-5-4-3-2-1-0-5-7-8-10-11-12-|
a|-5-4-3-2-1-0-5-4-3-2-1-0-5-7-8-10-11-12-|
d|-5-4-3-2-1-0-5-4-3-2-1-0-5-7-8-10-11-12-|

Ok now I made another Onesidezero tab, I'm gonna try to spit out more soon. Either 
"eight" or "shed the skin"
Comments