Onesidezero - Never Ending Chords & Tabs

 

Never Ending Chords & Tabs

Onesidezero Chords & Tabs

Version: 1 Type: Tab 0 ratings
1 star 2 stars 3 stars 4 stars 5 stars
comments

Never Ending Tab

Artist- Onesidezero
Song- Never Ending
Tabber- Iconoclast

Intro (ALL HARMONICS THESE ARE WHERE YOUR FINGERS GO)
e|---------------------------------|
b|-12-------------------12---------|
g|------------------------------12-|
d|-----------12---12---------12----|
a|---------9----9----9-------------|
D|----9--------------------9-------|

Verse- Guitar 1
e|-----------------------|
b|-------3---------------|
g|-----4-----0-2-4-------|
d|---2-----4-------------|
a|-----------------------|
D|-----------------------|

Verse- Guitar 2
e|-10--------7----------------------|
b|----7--------7-----10-------------|
g|------7/9------9------12p11--9/11-|
d|-----------------9----------------|
a|----------------------------------|
D|----------------------------------|
[ Tab from: http://www.guitartabs.cc/tabs/o/onesidezero/never_ending_tab.html ]
Prechorus
e|-----------------|---2---------------|
b|---------------3-|-----3-----------3-|
g|---2---------0---|---------------0---|
d|-------0---------|---------0---------|
a|-----2---2-3-----|-------2---2-3-----|
D|-0---------------|-0-----------------|

Chorus- Guitar 1 
  repeat as needed|
e|-5---5---5------|-7b-|-5---5---5---5---3-3-1-0---|
b|---3---3---3----|----|---3---3---3---3-----------|
g|----------------|----|---------------------------|
d|----------------|----|---------------------------|
a|----------------|----|---------------------------|
D|----------------|----|---------------------------|

Chorus- Guitar 2
e|---------------------------|
b|---------------------------|
g|-3-------------3-----2-----|
d|-3(16x)-0------3(8x)-2(8x)-|
a|-1------0(16x)-1-----0-----|
D|--------0------------------|

There are some fills i left out in the chorus, im sure you can figure them out.
Comments