Onesidezero - Is This Room Getting Smaller Chords & Tabs

 

Is This Room Getting Smaller Chords & Tabs

Onesidezero Chords & Tabs

Version: 1 Type: Tab 0 ratings
1 star 2 stars 3 stars 4 stars 5 stars
comments

Is This Room Getting Smaller Tab

   
Hey here is the entire Onesidezero album, hope you enjoy it, I had a tough time making it but i learned a lot about tabbing in the process, so here it is. -Iconoclast

--------------
1.)Instead laugh

Verse
e|-----------------------------------------|
b|-----------------------------------------|
g|-----------------------------------------|
d|-0-------3-----3-------2-------0---------|
a|-1-1-1-1-1-1-1-1-1-1-1-1-1-1-1-1---------|
D|-----------------------------------------|
     pm---   pm-   pm---   pm---

e|-----------------------------------------|
b|-----------------------------------------|
g|-----------------------------------------|
d|---------3-----3-------2-------0---------|
a|-1-1-1-1-1-1-1-1-1-1-1-1-1-1-1-1---------|
D|-----------------------------------------|
   pm-----   pm-   pm---   pm---

e|-----------------------------------------|
b|-----------------------------------------|
g|-----------------5-5-5-5-2-2-2h3---------|
d|---------3-----3-3-3-3-3-2-2-------------|
a|-5-5-5-5-5-5-5-5-------------------------|
D|-----------------------------------------|
   pm-----   pm-   pm---------

e|-----------------------------------------|
b|-----------------------------------------|
g|-----------------3-3-3-3-2-2-------------|
d|---------3-----3-3-3-3-3-3-3-------------|
a|-3-3-3-3-3-3-3-3-------------3h5---------|
D|-----------------------------------------|
   pm-----   pm--  pm---------

e|-----------------------------------------|
b|-----------------------------------------|
g|-----------------------------------------|
d|---------3-----3-------2-------0---------|
a|-1-1-1-1-1-1-1-1-1-1-1-1-1-1-1-1---------|
D|-----------------------------------------|
   pm-----   pm-   pm---   pm---

e|-----------------------------------------|
b|-----------------------------------------|
g|-----------------------------------------|
d|---------3-----3-------2-------0---------|
a|-1-1-1-1-1-1-1-1-1-1-1-1-1-1-1-1---------|
D|-----------------------------------------|
   pm-----   pm-   pm---   pm---

Prechorus 
e|-----------------------------------------|
b|-----------------------------------------|
g|------------------------0-0-2------------|
d|-0-----0-2-2-2-2h3----3-3-3-3------------|
a|-1-1-1-1-1-1-1-1--1-1-1-1-1-1------------|
D|-----------------------------------------|
     pm-            pm-

Chorus
e|-----------------------------------------|
b|-----------------------------------------|
g|-----------------------------------------|
d|-0-10-10-10-6-6-6-7-7--------------------|
a|-0-10-10-10-6-6-6-7-7--------------------|
D|-0-10-10-10-6-6-6-7-7--------------------|

e|-----------------------------------------|
b|-----------------------------------------|
g|------------------------0-0-2------------|
d|-0-----0-2-2-2-2h3----3-3-3-3------------|
a|-1-1-1-1-1-1-1-1--1-1-1-1-1-1------------|
D|-----------------------------------------|
     pm-            pm-

Postchorus- Guitar 1
e|----------------------------------|
b|----------------------------------|
g|----------------------------------|
d|----------------------------------|
a|-5-----5/7-----7/8-----8/10-10-12-|
D|---5-5-----7-7-----8-8------------|
     pm-     pm-     pm-    

Postchorus- Guitar 2
e|-------------------------------|
b|-------------------------------|
g|-7-7-7-7/5-5-5-5-3-3-3-3p2-2-2-|
d|-------------------------------|
a|-------------------------------|
D|-------------------------------|
     pm-     pm-     pm-

Solo- either played with octave pedal or another guitar. All notes played with heavy vibrato
e|---------------------------------------------------|
b|---------1-3---------------------------------------|
g|-s3-3-3-3---2-2h3p2-0h2p0--------------------------|
d|-------------------------3h5p3-2-3-2-3-2-----------|
a|-----------------------------------------3-1h3p1-0-|
D|---------------------------------------------------|

e|---------------------------------------------------|
b|--------------------s6-5-5-3-3-3s8-6-6-5-5-3s2-2-3-|
g|---------------------------------------------------|
d|----2-3-2-3----------------------------------------|
a|-1-3--------3-1-3-1--------------------------------|
D|---------------------------------------------------|

e|-----------------s13~~~-12~~~~-10~~~~---------|
b|-6-5-5-3-3-2-3-5------------------------------|
g|----------------------------------------------|
d|----------------------------------------------|
a|----------------------------------------------|
D|----------------------------------------------|

------------
2.)Holding Cell

Verse- Guitar 1 (all palm muted)
e|----------------------------------------------------|
b|-3-3-3-3-3-3----------------------------------------|
g|-------------3-3-3-3-3-3-3-2-2-2-2-2-2-2------------|
d|----------------------------------------3-3-3-3-3-3-|
a|----------------------------------------------------|
D|----------------------------------------------------|

Verse- Guitar 2 
e|-10-------10-------10-------------------------|
b|----11-10----11-10----11-10-11-11-10----------|
g|----------------------------------------------|
d|----------------------------------------------|
a|----------------------------------------------|
D|----------------------------------------------|

Verse- Guitar 3
e|--------------------------------------------------------|
b|--------------------------------------------------------|
g|--------------------------------------------------------|
d|-----7-7-7-7-7-8----------------7-----------------------|
a|---8-------------10-10-10-10-10---8-8-8-8-8-7-7-7-5-5-5-|
D|-0------------------------------------------------------|

e|---------------------------------|
b|---------------------------------|
g|---------------------------------|
d|---------------------------------|
a|-4-4-4---------------------------|
D|---------------------------------|

Chorus
e|---------------------------------|
b|---------------------------------|
g|---------------------------------|
d|-0-0-0-0-3-3-3-3-2-2-2-2-1-1-1-1-|
a|-0-0-0-0-3-3-3-3-2-2-2-2-1-1-1-1-|
d|-0-0-0-0-3-3-3-3-2-2-2-2-1-1-1-1-|

Chorus- 2nd guitar (comes in around the middle of the chorus, and you repeat it numerous times)
e|---------------------------------|
b|---------------------------------|
g|---------------------------------|
d|---------------------------------|
a|-s5------------------------------|
D|----0----------------------------|

After the chorus, the Verse- Guitar 3 comes in along with this...
e|-------------------------------------------------------|
b|-------------------------------------------------------|
g|-------------------------------------------------------|
d|---7-10-10-10-10-10-12-8-8-8-8-8-10-7-7-7-7-7----------|
a|----------------------------------------------10-10-10-|
D|-0-----------------------------------------------------|

e|---------------------------------|
b|---------------------------------|
g|---------------------------------|
d|---------------------------------|
a|-8-8-8-7-7-7---------------------|
D|---------------------------------|

Bridge (played along with the 1st and 2nd verse parts)
e|---------------------------------|
b|---------------------------------|
g|-9-------------------------------|
d|-x(repeat as needed)-12b12-------|
a|-7-------------------------------|
D|---------------------------------|

After last verse, play...
e|-----------------|--------------------|
b|-----------------|--------------------|
g|-14b-14-14b-12---|-14b-14b-12-9-9-9-9-|
d|--x------x---x---|--x---x---x-x-x-x-x-|
a|-12b-12-12b-10---|-12b-12b-10-7-7-7-7-|
D|-----------------|--------------------|

---------------
3.)New World Order

Intro/Prechorus
e|----------------------------------------------|
b|----------------------------------------------|
g|---------------------9/-----------------------|
d|-5-5-5-8-4-4-4-4-5-5-x------------------------|
a|-5-5-5-8-4-4-4-4-5-5-7/-----------------------|
D|-5-5-5-8-4-4-4-4-5-5--------------------------|

Verse
e|----------------------------------------------|
b|----------------------------------------------|
g|---------------------9/---------------------5-|
d|---------------------x----------------------x-|
a|---------------------7/---------------------3-|
D|-5-5-5-8-4-4-4-4-5-5----5-5-5-8-4-4-4-4-5-5---|
   pm-----------------|   pm-----------------|

Chorus (strumming not shown, when u play it you'll get the idea)
e|----------------------------------|
b|----------------------------------|
g|-10--12--8--7-10--8--12--7--------|
d|--x---x--x--x--x--x---x--x--------|
a|--8--10--6--5--8--6--10--5--------|
D|----------------------------------|

After you repeat that a few times you go...

e|------------------|
b|------------------|
g|-6----------------|
d|-6----------------|
a|-4----------------|
D|------------------|

Solo- repeat once (put vibrato on almost all notes)
e|--------------------------------------|
b|-----------------------3-4------------|
g|-5---------5---------5-----5-4--------|
d|---3-3-3-3---2-2-2-2------------------|
a|--------------------------------------|
D|--------------------------------------|

Solo- repeat once
e|---------------------------------------|
b|-3-2-3-5-5b-5h6p5-3-5-3-5-3------------|
g|---------------------------------------|
d|---------------------------------------|
a|---------------------------------------|

e|----------------------------------------|
b|----------------------------------------|
g|----------------------------------------|
d|-5-4-3-2-1-0-5-4-3-2-1-0-5-7-8-10-11-12-|
a|-5-4-3-2-1-0-5-4-3-2-1-0-5-7-8-10-11-12-|
d|-5-4-3-2-1-0-5-4-3-2-1-0-5-7-8-10-11-12-|

---------------
4.)A point in time

Intro
e|---------------------------------------------------|
b|--------5-5s7--------------7-----7-----5-----5-----|
g|-s6-6-7-------------7p6------6-----6-----7-----7---|
d|--------------7---7-----7------7-----7-----7-----7-|
a|----------------9----------------------------------|
D|---------------------------------------------------|

Verse
e|-------------------------------------|
b|--------5-5s7------------------------|
g|-s6-6-7-------------7p6--6-7-7s9-7---|
d|--------------7---7----------------7-|
a|----------------9--------------------|
D|-------------------------------------|

Chorus
e|---------------------------------------------------|
b|-----------------------------------------15--------|
g|-----------------------------------------x---------|
d|-7-7-6-6-7-7-9-9-7-7-9-9-11-11-9-9-11-11-12--------|
a|-4-4-4-4-4-4-6-6-6-6-6-6-7--7--7-7-7--7--0-(6x)----|
D|-4-4-4-4-4-4-6-6-6-6-6-6-7--7--7-7-7--7--0---------|

Bridge- 1st guitar
e|-------------------------------------------------|
b|-------------------------------------------------|
g|-------------------------------------------------|
d|-11s12s11-9s11s9-7s9s7-6s7s6-4s6s4-2-2-4-4-6h7---|
a|-------------------------------------------------|
D|-------------------------------------------------|

2nd guitar
e|----------------------------------------------|
b|----------------------------------------------|
g|-14-------14-------14-------------------------|
d|----11-12----12-11----12-11-14-12-11----------|
a|----------------------------------------------|
D|----------------------------------------------|

A little later...
e|-----------------------------------------------------|
b|-----------------------------------------------------|
g|-----------------------------------------------------|
d|-11----------12----------14----------12-11-11-12-----|
a|----12-12-12----14-14-14----11-11-11-----------------|
D|-----------------------------------------------------|

A little later
e|---------------------------------------------------------|
b|---------------------------------------------------------|
g|---------------------------------------------------------|
d|-12-11-11----14-14-14----16-------16-16s20-20-19h20p19---|
a|----------12----------12----14-14------------------------|
D|---------------------------------------------------------|

e|-----------------------------------------------------|
b|-----------------------------------------------------|
g|-----------------------------------------------------|
d|-11----------12----------14----------14-14b(16)------|
a|----12-12-12----14-14-14----11-11-11-----------------|
D|-----------------------------------------------------|

--------
5.)Tapwater

Verse               | Riff after intro
e|-------3----------|-------------------------------|
b|-3-0-0-3----------|-------------------------------|
g|-2-5-2-0----------|-------------------------------|
d|-0-4-5-0----------|-------------------------------|
a|-0-3-0------------|-0-0-0-10-0-0-9-0-0-10-0-0-2-3-|
D|-0----------------|-0-0-0-10-0-0-9-0-0-10-0-0-2-3-|

Between the verse and the prechorus it goes..
e|---------|
b|---------|
g|---------|
d|-2-2b(3)-|
a|---------|
D|---------|

Prechorus
e|-----------------------|
b|-----------------------|
g|-----------------------|
d|-----5p0---------------|
a|-0-0-----3-3-3-3/6-6-6-|
D|-0-0-----3-3-3-3/6-6-6-|

Chorus- Guitar 1
e|---------------------------------|
b|---------------------------------|
g|---------------------------------|
d|----7--------------5-5-7-7-7-----|
a|-5~---7~-7-8-7-7-8-----------8-7-|
D|---------------------------------|

Chorus- Guitar 2
e|-------------------------------------------3-3-3-3-3-3-3-|
b|-------------------------------------------3-3-3-3-3-3-3-|
g|---------------5-5-5-5-5-5-5-2-2-2-2-2-2-2-0-0-0-0-0-0-0-|
d|-0-0-0-0-0-0-0-5-5-5-5-5-5-5-2-2-2-2-2-2-2-0-0-0-0-0-0-0-|
a|-0-0-0-0-0-0-0-3-3-3-3-3-3-3-0-0-0-0-0-0-0---------------|
D|-0-0-0-0-0-0-0-------------------------------------------|

Bridge- Guitar 1 (just repeat this until this section of the bridge is over)
e|---------------------|
b|---------------------|
g|---------------------|
d|-3h5-5-5-3h5-5-5-3h5-|
a|---------------------|
D|---------------------|

Bridge- Guitar 2 (strumming not shown)
e|---------------------|
b|---------------------|
g|-----5---------------|
d|-3-1-5-5-6-----------|
a|-3-1-3-5-6-----------|
D|-3-1---5-6-----------|

Solo (couldnt really think of anything else to call it, its kinda a solo)
e|-----------/14-------|
b|---------------------|
g|---------------------|
d|-7-7/5-5-4-----------|
a|---------------------|
D|---------------------|

-------------
6.)Shed the Skin

Intro/Bridge
e|--------------------------------|
b|--------------------------------|
g|--------------------------------|
d|-0-0-2-2s3-0-2------------------|
a|-0-0-2-2s3-0-2------------------|
D|-0-0-2-2s3-0-2------------------|
[ Tab from: http://www.guitartabs.cc/tabs/o/onesidezero/is_this_room_getting_smaller_tab.html ]
Verse
e|-------12----------12----------12-17-12----12---------|
b|----13----------13----------13----------13----13-12---|
g|-14-------14-13-------13-14---------------------------|
d|------------------------------------------------------|
a|------------------------------------------------------|
D|------------------------------------------------------|

Chorus (no strumming shown)
e|----------------------------------|
b|----------------------------------|
g|-9-9b-10-14-16-17-16-14-13-10-----|
d|-x-x---x--x--x--x--x--x--x--x-----|
a|-7-7b--8-12-14-15-14-12-11--8-----|
D|----------------------------------|

Fill at end of 2nd verse
e|-15h17p15-------------------------|
b|----------12h13p12-13-15-13-12-13-|
g|----------------------------------|
d|----------------------------------|
a|----------------------------------|
D|----------------------------------|

During bridge, these 2 notes are played a few seconds apart

e|----------------------------------|
b|----------------------------------|
g|-----11b11------------------------|
d|----------------------------------|
a|-12b------------------------------|
D|----------------------------------|

-----
7.)Awake

Verse
e|---------------------------------|
b|---------------------------------|
g|---------------------------------|
d|-2h4-4-4-------------------------|
a|---------4---4b------------------|
D|-----------4---------------------|

Prechorus- Guitar 1
e|---------------------------------|
b|---7-----7-----10------12--------|
g|-6---6-7---7-9----9-11----11-----|
d|---------------------------------|
a|---------------------------------|
D|---------------------------------|

Prechorus- Guitar 2 (repeat each single note 8 times)
e|---------------------------------|
b|---------------------------------|
g|-6-7-6-7-6-7-4-7-----------------|
d|---------------------------------|
a|---------------------------------|
D|---------------------------------|
   pm-------------

Chorus                             
e|---------------------------------|
b|---------------------------------|
g|-------6-------------------------|
d|-4-4-4-x-0-0-7-7-7-2-2-----------|
a|-4-4-4-4-0-0-7-7-7-2-2-----------|
D|-4-4-4---0-0-7-7-7-2-2-----------|

After playing the above a few times play this
e|---------------------------------------------------|
b|---------------------------------------------------|
g|-4-4-4-6-6-6-7-7-7---------------------------------|
d|-4-4-4-6-6-6-7-7-7-7-(second time around play)-5---|
a|-2-2-2-4-4-4-5-5-5-7---------------------------5---|
D|-------------------7---------------------------5---|

---------------
8.)The Day we Lied

Intro- Guitar 1
e|------------------------------------------|
b|------------------------------------------|
g|------------------------------------------|
d|-------------------7-9h10-10-9h10p9-7-9---|
a|-9-9-9h10p9-7-9-10---------------------10-|
D|-0-0--------------------------------------|

At end end the intro do this...
e|----------------------------------------------|
b|----------------------------------------------|
g|----------------------------------------------|
d|------------------------4h5p4-----------------|
a|-9-9-9h10p9-7-9-7-5-4-5-------7-5-4-5-5-5-5-5-|
D|-0-0------------------------------------------|


Intro- Guitar 2
You basically just strum an open D power chord.

Verse
e|------------------------------|
b|------------------------------|
g|------------------------------|
d|-2-2-*5-*5-*5-*5--------------|
a|-2-2-------------*5-*5-*5-*5--|
D|-2-2--------------------------|

After a while of playing that play this (you'll know the timing when u hear it)          
e|------------------------------|
b|------------------------------|
g|---------------------11/7-7-7-|
d|-2-2-x-x-x-x-x-x-x-x--x-x-x-x-|
a|-2-2-x-x-x-x-x-x-x-x--9/5-5-5-|
D|-2-2-x-x-x-x-x-x-x-x----------|

Chorus
e|--------------------------------------------------------|
b|--------------------------------------------------------|
g|--------------------------------------------------------|
d|-10-10-10-10-10-10/9-9-9-9-9-9/7-7-7-7-7-7h9p7----------|
a|-----------------------------------------------10-9-7-9-|
D|--------------------------------------------------------|

Bridge(no strumming shown) | At the end of bridge play this
e|--------------------|---------|
b|--------------------|---------|
g|-7-9-10-9-12--------|-8-------|
d|-x-x-x--x-x---------|-8(10x)--|
a|-5-7-8--7-10--------|-6-------|
D|--------------------|---------|

Outro (different strumming patterns are used but thats about it)
e|--------------------|
b|--------------------|
g|--------------------|
d|-2-2-2-3-2-2-2-3----|
a|-2-2-2-3-2-2-2-3----|
D|-2-2-2-3-2-2-2-3----|

----
9.)Soak

Verse- Guitar 1(for best effect play close to the bridge)
e|--------------------------------------------------------|
b|--------------------------------------------------------|
g|--------------------------------------------------------|
d|--------------------------------------------------------|
a|--------------------------------------------------------|
D|-9-9-9-9-9-9-9-0-0-0-0-0-0-0-5-5-5-5-5-5-5-4-2-0--------|

Verse- Guitar 2
e|-----------------------------------------------|
b|---8-7-----------------8-7---5---5-------------|
g|-4-----7-7-7-7-7-7-7-4-----6---6---------------|
d|-----------------------------------*4-*4-*4-*4-|
a|-----------------------------------------------|
D|-----------------------------------------------|
           pm---------

Chorus
e|---------------------------------------------------|
b|---------------------------------------------------|
g|---------------------------------------------------|
d|-11-11-11-11-11-0-0-0-0-7-7-7-7-7-9-9-9-9----------|
a|--9--9--9--9--9-0-0-0-0-5-5-5-5-5-0-0-0-0----------|
D|--9--9--9--9--9-0-0-0-0-5-5-5-5-5-0-0-0-0----------|

Bridge- Guitar 1
e|---------------------------------|
b|---------------------------------|
g|-7-9-7----9-7-9-7----7-7---------|
d|-------10---------10-----10-9-7--|
a|---------------------------------|
D|---------------------------------|

Bridge- Guitar 2
e|---------------------------------|
b|---------------------------------|
g|---------------------------------|
d|-7-9-7----9----------------------|
a|-------10---9-10-9-7-10-10-9-10--|
D|---------------------------------|

At the end of bridge, play this
e|---------------------------------|
b|---------------------------------|
g|---------------------------------|
d|---------------------------------|
a|---------------------------------|
D|-9-9-9-9-9-9-9-9-9-9-9-9-9-9-----|

Theres a solo in the last chorus that goes...
e|---------------------------------|
b|---------------------------------|
g|-s11-----------------------------|
d|-----11-12-14-12-12-11-9-7-9-----|
a|---------------------------------|
D|---------------------------------|

e|---------------------------------------|
b|---------------------------------------|
g|-s11-----------------------------------|
d|-----11-12-14-12-11-11-12p11-9-7-9-7---|
a|---------------------------------------|
D|---------------------------------------|

e|---------------------------------------|
b|---------------------------------------|
g|-s11-------------------14-------14-----|
d|-----11-12-14-12-12-12----12-12----12--|
a|---------------------------------------|
D|---------------------------------------|

e|---------------------------------------|
b|---------------------------------------|
g|-s11-----------------------------------|
d|-----11-12-14-12-11-7------------------|
a|---------------------9-7-5-4-----------|
D|---------------------------------------|

-----
10.)Eight

Intro(delay, slightly palm muted)
e|----------------------------------------------|
b|----------------------------------------------|
g|----------------------------------------------|
d|----------------------------------------------|
a|-------5---5-------------4-4-*5-*5------------|
D|-4-4-4---4---6-6-6-6-7-7----------------------|

Verse
e|----------------------------------------------|
b|----------------------------------------------|
g|----------------------------------------------|
d|----------*4----------------------------------|
a|-*4-*5-*4----*5-*4----------------------------|
D|----------------------------------------------|

Prechorus
e|----------------------------------------------|
b|----------------------------------------------|
g|----------------------------------------------|
d|----------------------------------------------|
a|-4-4-4-4-4-4-5-5-5-5-5-5----------------------|
D|-4-4-4-4-4-4-0-0-0-0-0-0----------------------|
   pm---------------------

Chorus (not sure this is right- the bass throws me off)
e|-----------------------------------------------------|
b|-----------------------------------------------------|
g|-----------------------------------------------------|
d|-7-7-7-7-7-7-7-7-7-4-4-4-4-4-4-4-4-4--4-4-4-4-4-4----|
a|-4-4-4-4-4-4-4-4-4-5-5-4-4-4-4-4-4-4--4-4-4-5-5-4----|
D|-4-4-4-4-4-4-7-7-7--------------------7-7-7----------|

Bridge (a lot of other things go on here, this is just a basic outline)
e|------------------------------------|
b|-------------------------5-----5----|
g|-----2-------4-------6-----6-----6--|
d|-4-4---4-6-6---6-7-7---7-----7------|
a|------------------------------------|
D|------------------------------------|

e|------------------------------------|
b|------------------------------------|
g|-----2------------------------------|
d|-4-4---4-----6-------7-----7--------|
a|---------7-7---7-5-5---5-5---5------|
D|------------------------------------|

Two tiny riffs near the end are...

Leading out of the last chorus-
e|----------------------------------------------|
b|----------------------------------------------|
g|-9-9-9-9-9-9----------------------------------|
d|-9-9-9-9-9-9-10-10-10-10-10-10----------------|
a|-7-7-7-7-7-7-8--8--8--8--8--8-----------------|
D|----------------------------------------------|

...and the last thing the guitar plays (its very faint but its there)

e|----------------------------------------------|
b|----------------------------------------------|
g|----------------------------------------------|
d|----*4----------------------------------------|
a|-*4-------------------------------------------|
D|----------------------------------------------|

------------
Never Ending

Intro (ALL HARMONICS THESE ARE WHERE YOUR FINGERS GO)
e|---------------------------------|
b|-12-------------------12---------|
g|------------------------------12-|
d|-----------12---12---------12----|
a|---------9----9----9-------------|
D|----9--------------------9-------|

Verse- Guitar 1
e|-----------------------|
b|-------3---------------|
g|-----4-----0-2-4-------|
d|---2-----4-------------|
a|-----------------------|
D|-----------------------|

Verse- Guitar 2
e|-10--------7----------------------|
b|----7--------7-----10-------------|
g|------7/9------9------12p11--9/11-|
d|-----------------9----------------|
a|----------------------------------|
D|----------------------------------|

Prechorus
e|-----------------|---2---------------|
b|---------------3-|-----3-----------3-|
g|---2---------0---|---------------0---|
d|-------0---------|---------0---------|
a|-----2---2-3-----|-------2---2-3-----|
D|-0---------------|-0-----------------|

Chorus- Guitar 1 
  repeat as needed|
e|-5---5---5------|-7b-|-5---5---5---5---3-3-1-0---|
b|---3---3---3----|----|---3---3---3---3-----------|
g|----------------|----|---------------------------|
d|----------------|----|---------------------------|
a|----------------|----|---------------------------|
D|----------------|----|---------------------------|

Chorus- Guitar 2
e|---------------------------|
b|---------------------------|
g|-3-------------3-----2-----|
d|-3(16x)-0------3(8x)-2(8x)-|
a|-1------0(16x)-1-----0-----|
D|--------0------------------|

-----------
12.)Underground

Verse (play first line once, and the second line the rest of the verse)
e|----------------------------------------------------|
b|-----1------1----1--/4-3----------------------------|
g|--------------------/5-5----------------------------|
d|-2-2-----2-----2----------------6-----6-----0-------|
a|-0-----0-----0-----------3/---3-----3-----0---------|
D|----------------------------3-----3-----0-----5-5-6-|

e|----------------------------------------------------|
b|-----1------1----1--/5-3----------------------------|
g|--------------------/5-5----------------------------|
d|---2-----2-----2---------3/-----6-----6-----0-------|
a|-0-----0-----0----------------3-----3-----0---------|
D|----------------------------3-----3-----0-----5-5-6-|

Verse- Guitar 2 (played with sustain and heavy vibrato)
e|-15-14-13-12------------|
b|-------------8-7-6-5----|
g|------------------------|
d|------------------------|
a|------------------------|
D|------------------------|

Following the verse, play this
e|-10b(12)-8/---------|
b|--------------------|
g|--------------------|
d|--------------------|
a|--------------------|
D|--------------------|

Prechorus (played along with the verse eventually)
e|-------------------------|
b|-------------------------|
g|-------------------------|
d|-3-3-3-3-3-3-2-2-2-2-2-2-|
a|-5-5-5-5-5-5-5-5-5-3-3-0-|
D|-------------------------|

Chorus- Guitar 1
e|-------------------------------------------------|
b|-------------------------------------------------|
g|-2-2-2-2-2-2-------------3-3-3-3-3-3-------------|
d|-2-2-2-2-2-2-0-0-0-0-0-0-3-3-3-3-3-3-5-5-5-5-5-5-|
a|-0-0-0-0-0-0-0-0-0-0-0-0-1-1-1-1-1-1-5-5-5-5-5-5-|
D|-------------0-0-0-0-0-0-------------5-5-5-5-5-5-|

Chorus- Guitar 2
e|--------------------------------|
b|-----5-3-5-----5-3-5-----5-3----|
g|-2-2-------2-2-------5-5----4-4-|
d|--------------------------------|
a|--------------------------------|
D|--------------------------------|

At the end of the chorus play this
e|--------------------|
b|-3h5-5-3------------|
g|-5---5-5-5-4--------|
d|---------x-x--------|
a|---------3-2--------|
D|--------------------|

Bridge (strumming not really shown, u get the idea)
e|-------------3-3-3-|
b|-6-6-6-5-5-5-5-5-5-|
g|-7-7-7-7-7-7-5-5-5-|
d|-0-0-0-0-0-0-5-5-5-|
a|-0-0-0-0-0-0-3-3-3-|
D|-0-0-0-0-0-0-------|

Solo (outro)
e|---------------------|-----------------------0-----|
b|-5~-5-6/8-10-8/3-1---|-5~-5-6/8-10-8/3-1---3---3---|
g|-------------------2-|-------------------2-------2-|
d|---------------------|-----------------------------|
a|---------------------|-----------------------------|
D|---------------------|-----------------------------|

This part is played with two guitars, but if you wanna play it it can be done with one.
e|--------------1-0-------|
b|-5-5-6-8-10---3-1-3-----|
g|-5-5-7-x--x-------2-----|
d|-------9-10-12----------|
a|------------------------|
D|------------------------|


And thats all. Enjoy. I wanna know what u think of it so gimme some feedback.
Comments