Onesidezero - Instead Laugh Chords & Tabs

 

Instead Laugh Chords & Tabs

Onesidezero Chords & Tabs

Version: 2 Type: Tab 0 ratings
1 star 2 stars 3 stars 4 stars 5 stars
comments

Instead Laugh Tab

Artist- Onesidezero
Album- Is this room getting smaller?
Song- Instead laugh

Verse
e|-----------------------------------------|
b|-----------------------------------------|
g|-----------------------------------------|
d|-0-------3-----3-------2-------0---------|
a|-1-1-1-1-1-1-1-1-1-1-1-1-1-1-1-1---------|
D|-----------------------------------------|
     pm---   pm-   pm---   pm---

e|-----------------------------------------|
b|-----------------------------------------|
g|-----------------------------------------|
d|---------3-----3-------2-------0---------|
a|-1-1-1-1-1-1-1-1-1-1-1-1-1-1-1-1---------|
D|-----------------------------------------|
   pm-----   pm-   pm---   pm---

e|-----------------------------------------|
b|-----------------------------------------|
g|-----------------5-5-5-5-2-2-2h3---------|
d|---------3-----3-3-3-3-3-2-2-------------|
a|-5-5-5-5-5-5-5-5-------------------------|
D|-----------------------------------------|
   pm-----   pm-   pm---------

e|-----------------------------------------|
b|-----------------------------------------|
g|-----------------3-3-3-3-2-2-------------|
d|---------3-----3-3-3-3-3-3-3-------------|
a|-3-3-3-3-3-3-3-3-------------3h5---------|
D|-----------------------------------------|
   pm-----   pm--  pm---------

e|-----------------------------------------|
b|-----------------------------------------|
g|-----------------------------------------|
d|---------3-----3-------2-------0---------|
a|-1-1-1-1-1-1-1-1-1-1-1-1-1-1-1-1---------|
D|-----------------------------------------|
   pm-----   pm-   pm---   pm---

e|-----------------------------------------|
b|-----------------------------------------|
g|-----------------------------------------|
d|---------3-----3-------2-------0---------|
a|-1-1-1-1-1-1-1-1-1-1-1-1-1-1-1-1---------|
D|-----------------------------------------|
   pm-----   pm-   pm---   pm---
[ Tab from: http://www.guitartabs.cc/tabs/o/onesidezero/instead_laugh_tab_ver_2.html ]
Prechorus 
e|-----------------------------------------|
b|-----------------------------------------|
g|------------------------0-0-2------------|
d|-0-----0-2-2-2-2h3----3-3-3-3------------|
a|-1-1-1-1-1-1-1-1--1-1-1-1-1-1------------|
D|-----------------------------------------|
     pm-            pm-

Chorus
e|-----------------------------------------|
b|-----------------------------------------|
g|-----------------------------------------|
d|-0-10-10-10-6-6-6-7-7--------------------|
a|-0-10-10-10-6-6-6-7-7--------------------|
D|-0-10-10-10-6-6-6-7-7--------------------|

e|-----------------------------------------|
b|-----------------------------------------|
g|------------------------0-0-2------------|
d|-0-----0-2-2-2-2h3----3-3-3-3------------|
a|-1-1-1-1-1-1-1-1--1-1-1-1-1-1------------|
D|-----------------------------------------|
     pm-            pm-

Haven't figured out the post chorus. 

Solo- either played with octave pedal or another guitar. All notes played with heavy vibrato
e|---------------------------------------------------|
b|---------1-3---------------------------------------|
g|-s3-3-3-3---2-2h3p2-0h2p0--------------------------|
d|-------------------------3h5p3-2-3-2-3-2-----------|
a|-----------------------------------------3-1h3p1-0-|
D|---------------------------------------------------|

e|---------------------------------------------------|
b|--------------------s6-5-5-3-3-3s8-6-6-5-5-3s2-2-3-|
g|---------------------------------------------------|
d|----2-3-2-3----------------------------------------|
a|-1-3--------3-1-3-1--------------------------------|
D|---------------------------------------------------|

e|-----------------s13~~~-12~~~~-10~~~~---------|
b|-6-5-5-3-3-2-3-5------------------------------|
g|----------------------------------------------|
d|----------------------------------------------|
a|----------------------------------------------|
D|----------------------------------------------|

Ya, it's not perfect but its the only Onesidezero tabs on the site, so it's the best :)
Comments