Onesidezero - Eight Chords & Tabs

 

Eight Chords & Tabs

Onesidezero Chords & Tabs

Version: 2 Type: Tab 0 ratings
1 star 2 stars 3 stars 4 stars 5 stars
comments

Eight Tab

Artist- Onesidezero
Song- Eight
Tabber- Iconoclast

Intro(delay, slightly palm muted)
e|----------------------------------------------|
b|----------------------------------------------|
g|----------------------------------------------|
d|----------------------------------------------|
a|-------5---5-------------4-4-*5-*5------------|
D|-4-4-4---4---6-6-6-6-7-7----------------------|

Verse
e|----------------------------------------------|
b|----------------------------------------------|
g|----------------------------------------------|
d|----------*4----------------------------------|
a|-*4-*5-*4----*5-*4----------------------------|
D|----------------------------------------------|

Prechorus
e|----------------------------------------------|
b|----------------------------------------------|
g|----------------------------------------------|
d|----------------------------------------------|
a|-4-4-4-4-4-4-5-5-5-5-5-5----------------------|
D|-4-4-4-4-4-4-0-0-0-0-0-0----------------------|
   pm---------------------
[ Tab from: http://www.guitartabs.cc/tabs/o/onesidezero/eight_tab_ver_2.html ]
Chorus (not sure this is right- the bass throws me off)
e|-----------------------------------------------------|
b|-----------------------------------------------------|
g|-----------------------------------------------------|
d|-7-7-7-7-7-7-7-7-7-4-4-4-4-4-4-4-4-4--4-4-4-4-4-4----|
a|-4-4-4-4-4-4-4-4-4-5-5-4-4-4-4-4-4-4--4-4-4-5-5-4----|
D|-4-4-4-4-4-4-7-7-7--------------------7-7-7----------|

Bridge (a lot of other things go on here, this is just a basic outline)
e|------------------------------------|
b|-------------------------5-----5----|
g|-----2-------4-------6-----6-----6--|
d|-4-4---4-6-6---6-7-7---7-----7------|
a|------------------------------------|
D|------------------------------------|

e|------------------------------------|
b|------------------------------------|
g|-----2------------------------------|
d|-4-4---4-----6-------7-----7--------|
a|---------7-7---7-5-5---5-5---5------|
D|------------------------------------|

Two tiny riffs near the end are...

Leading out of the last chorus-
e|----------------------------------------------|
b|----------------------------------------------|
g|-9-9-9-9-9-9----------------------------------|
d|-9-9-9-9-9-9-10-10-10-10-10-10----------------|
a|-7-7-7-7-7-7-8--8--8--8--8--8-----------------|
D|----------------------------------------------|

...and the last thing the guitar plays (its very faint but its there)

e|----------------------------------------------|
b|----------------------------------------------|
g|----------------------------------------------|
d|----*4----------------------------------------|
a|-*4-------------------------------------------|
D|----------------------------------------------|
Comments