Onesidezero - Brocwurst Chords & Tabs

 

Brocwurst Chords & Tabs

Onesidezero Chords & Tabs

Version: 1 Type: Tab 0 ratings
1 star 2 stars 3 stars 4 stars 5 stars
comments

Brocwurst Tab

OneSideZero- Brocwurst 
tabbed by-jtthibert 

Okay this is a bare tab... It only has the intro, Bridge and a part of the outro. 
But it is a start so here it is.  Iam working on the chorus and hopefully will  
post it in a few days. 

Intro 
E----------------------------------------------- 
B----------------------------------------------- 
G----------------------------------------------- 
D--6-6-6-6-6-6-6-6-6-6-6-6-----0-x-x------------ 
A--6-6-6-6-6-6-6-6-6-6-6-6-----0-x-x------------ 
D--6-6-6-6-6-6-6-6-6-6-6-6-----0-x-x------------ 
[ Tab from: http://www.guitartabs.cc/tabs/o/onesidezero/brocwurst_tab.html ]
Bridge after first chorus 
E---------------------------------------------- 
B---------------------------------------------- 
G---------------------------------------------- 
D------6b------6b------------------------------ 
A------6b------6b------------------------------ 
D--0-0-----0-0--------------------------------- 

Outro 
E------------------------------------------------ 
B------------------------------------------------ 
G------------------------------------------------ 
D--0-0-0-0-0-0-0-0---6s7-7s9-9s11--11s13--------- 
A--0-0-0-0-0-0-0-0------------------------------- 
D--0-0-0-0-0-0-0-0-------------------------------
Comments