One True Thing - Monster Chords & Tabs

 

Monster Chords & Tabs

One True Thing Chords & Tabs

Version: 1 Type: Tab 0 ratings
1 star 2 stars 3 stars 4 stars 5 stars
comments

Monster Tab

New Artis in your DataBase so here is the info
Website: http://www.onetruething.net/

Band: One True Thing 
Song: Monster
Tabbed by: Nouwsh
Mail: Nouwsh@hotmail.com
Note: This is all and the best that i could figure out. If you find something
wrong or something missing please mail me Nouwsh@hotmail.com. Enjoy ;)

/ -> slide from left to right
\ -> slide from right to left
X -> P.M. (Palm Mute)

Intro (Electric)
|--------------------------------------------------------------------------|
|--------------------------------------------------------------------------|
|-222222224444222---------4444-----------------5-4-------------------------|
|-222222222222222-555555555555777-222222222222-5-5-555---------------------|
|-000000000000000-555555555555777-222222222222-3-2-555---------------------|
|-----------------333333333333333-000000000000-----333---------------------|

Verse (Electric with special FX) Repeat the verse 3 times.
|--8-8-8-8-8-8-8-8-121212-101010--8-8--55555555-121212-101010--8-8---------|
|-1010101010101010-101010-101010-1010--66666666-101010-101010-1010---------|
|--------------------------------------------------------------------------|
|--------------------------------------------------------------------------|
|--------------------------------------------------------------------------|
|--------------------------------------------------------------------------|

|101010101010101012121210101088101010101010101012121210101088--------------|
|-8-8-8-8-8-8-8-8-8-8-8-8-8-888-8-8-8-8-8-8-8-8-8-8-8-8-8-888--------------|
|--------------------------------------------------------------------------|
|--------------------------------------------------------------------------|
|--------------------------------------------------------------------------|
|--------------------------------------------------------------------------|

Pré-Chorus (Acustic with special FX) (Im not sure how i feel...)
|--------------------------------------------------------------------------|
|--------------------------------------------------------------------------|
|-------4--5------2--4-----2--4-----2--4-----------------------------------|
|---7---------5---------5--------5-----------------------------------------|
|--7--7--7---5--5--5---3--3--3--5--5--5------------------------------------|
|--------------------------------------------------------------------------|
[ Tab from: http://www.guitartabs.cc/tabs/o/one_true_thing/monster_tab.html ]
Chorus (Electric) (I am the monster...)
|--------------------------------------------------------------------------|
|--------------------------------------------------------------------------|
|--2222222244422244-5555555577755577-9999999910101099977-777777-555555-----|
|--2222222222222222-5555555555555555-99999999-9-9-999999-777777-555555-----|
|--0000000000000000-3333333333333333-77777777-7-7-777777-555555-333333-----|
|--------------------------------------------------------------------------|

(Im the things you hide...)
|--------------------------------------------------------------------------|
|--------------------------------------------------------------------------|
|-222222224444222---------4444-----------------5-4-------------------------|
|-222222222222222-555555555555777-222222222222-5-5-555---------------------|
|-000000000000000-555555555555777-222222222222-3-2-555---------------------|
|-----------------333333333333333-000000000000-----333---------------------|

PLAY VERSE 3 AGAIN
THEN THE PRÉ-CHORUS 2 TIMES
THEN CHORUS.

now this
|--------------------------------------------------------------------------|
|--------------------------------------------------------------------------|
|-7-7/10-10\7-9\5/7\3------------------------------------------------------|
|-7------------------------------------------------------------------------|
|-5------------------------------------------------------------------------|
|--------------------------------------------------------------------------|

Now keep doing this a lot of times... i dont know how many =X figure it out
(Im too strong...)
|--------------------------------------------------------------------------|
|--------------------------------------------------------------------------|
|--2-----------------------------------------------------------------------|
|--2-----------------------------------------------------------------------|
|--0-----------------------------------------------------------------------|
|--------------------------------------------------------------------------|
   X

(Im not sure how i feel...)
|--------------------------------------------------------------------------|
|--------------------------------------------------------------------------|
|--------22244422----------------------------------------------------------|
|-777777-22222222-555555555555-3333333333-5555555555-----------------------|
|-777777-00000000-555555555555-3333333333-5555555555-----------------------|
|-555555----------333333333333-1111111111-3333333333-----------------------|

THEN CHORUS =D 

AND THATS ALL I KNOW... Any coments please mail me Nouwsh@hotmail.com
Comments