One Piece - We Are Chords & Tabs

 

One Piece Chords & Tabs

Version: 1 Type: Bass Tab 0 ratings
1 star 2 stars 3 stars 4 stars 5 stars
comments

We Are Bass Tab

Song: We Are!  (one piece opening)
Artist: Tohoshinki

BASSLINE
by Gustavo02
emaildogustavo02@hotmail.com


Check the cover of gustavoveg02 on youtube to have a better idea of the timing and stuff.

In this song I turn the E string one semi-tone down, then it becomes a Eb string. I 
like very much to do this but I have to hit the open Eb string all the time so it can't be 
much...
Anyway, you still can play it on the standard
tune, you only have to lower one fret to all notes in the Eb|-------|, but you will lose 
the 0 notes (open notes).

This bassline is a little diferent from the original bassline, I changed some parts but 
ideia is still pretty close.

INTRO:

G |--------------------------------|  |---------------------------------|
D |--------------------------------|  |---------------------------------|
A |--------------------------------|  |---------------------------------|
Eb|10------------------------------|  |12-------------------------------|

G |--------------------------------|  |---------------------------------|
D |--------------------------------|  |---------------------------------|
A |--------------------------------|  |----4---7---6---4----------------|
Eb|10------------------------------|  |7-------------------7--------12\-|


G |--------------------------------|  |---------------------------------|
D |--------------------------------|  |---------------------------------|
A |----6-6-----4-------6-6-----4---|  |----6-6-----4-------6-6----------|
Eb|0---------7---7-0---------7-----|  |0---------7---7-0----------3-2-1-|

G |--------------------------------|  |---------------------------------|
D |--------------------------------|  |---------------------------------|
A |----6-6-----4-------6-6-----4---|  |6---4---3---1---3-4----1---------|
Eb|0---------7---7-0---------7-----|  |---------------------------------|


CHORUS 1:

G |--------------------------------|  |---------------------------------|
D |--------------------------------|  |---------------------------------|
A |6----------6----5----3-1----1-3-|  |4-------4------------------------|
Eb|-------7-7----------------------|  |-----5-----5.----5-5----7-7------|

G |--------------------------------|  |---------------------------------|
D |--------------------------------|  |---------------------------------|
A |6----------6----5---5-----------|  |3---3-------3----0-------1-------|
Eb|-------7-7--------------4---4---|  |---------4-----------------------|


POS-CHORUS:

G |--------------------------------|  |---------------------------------|
D |--------------------------------|  |---------------------------------|
A |----6-6-----4-------6-6-----4---|  |----6-6-----4-------6-6----------|
Eb|0---------7---7-0---------7-----|  |0---------7---7-0----------3-2-1-|


VERSES 1A:

G |--------------------------------|  |---------------------------------|
D |--------------------------------|  |---------------------------------|
A |--------------------------------|  |--------------4------------------|
Eb|0-----0-------7-0-----0-------2-|  |3-----3---------3-------3--3-2---|

G |--------------------------------|  |---------------------------------|
D |--------------------------------|  |---------------------------------|
A |--------------------------------|  |----------------4---4-4---4------|
Eb|0-----0-------7-0-----0-------0-|  |5---5-5---5----------------------|

G |--------------------------------|  |---------------------------------|
D |--------------------------------|  |---------------------------------|
A |--------------------------------|  |----------------3-------3--------|
Eb|0-----0-------7-0-----0-------0-|  |5-----5-4-----4-------------4-7--|

G |--------------------------------|  |----------------------------------|
D |--------------------------------|  |----------------------------------|
A |----------------------3------3--|  |--------1---1-----------------8---|
Eb|5---5-5---5-----4---------------|  |2---2-----------0-----------7---7-|

G |-----------------|
D |-----------------|
A |6----------------|
Eb|--7-0------------|


VERSES 1B:
[ Tab from: http://www.guitartabs.cc/tabs/o/one_piece/we_are_btab.html ]
G |--------------------------------|  |---------------------------------|
D |--------------------------------|  |---------------------------------|
A |----------------------------3-4-|  |6-----6------4--6------6---4-----|
Eb|/7----7-------7--5-----5--------|  |-----------------------------5---|

G |--------------------------------|  |---------------------------------|
D |--------------------------------|  |---------------------------------|
A |--------------------------------|  |8---8-8-8--8----4---4---6---6----|
Eb|/7----7-------7--9-----9-----9--|  |------------------5-------7------|

G |--------------------------------|
D |--------------------------------|
A |--------------------------------|
Eb|2---2-2---2-----3---5---7-------|


CHORUS 2A:

G |--------------------------------|  |---------------------------------|
D |--------------------------------|  |---------------------------------|
A |6----------6----5----3-1----1-3-|  |4-------4------------------------|
Eb|-------7-7----------------------|  |-----5-----5.----5-5----7-7------|

G |--------------------------------|  |---------------------------------|
D |--------------------------------|  |---------------------------------|
A |6----------6----5---5-----------|  |3---3-3---3------1---1-1---1-----|
Eb|-------7-7--------------4---4---|  |---------------------------------|

CHORUS 2B (pocketo no koin...)

G |--------------------------------|  |---------------------------------|
D |--------------------------------|  |---------------------------------|
A |--------------------------------|  |-----------------3---3-3-3---3---|
Eb|5---5-------5---7---7-7-7---7---|  |4---4--------4-------------------|

G |---------------------------------|  |---------------------------------|
D |---------------------------------|  |9---9---9---9--------------------|
A |---------------------------------|  |---------------------------------|
Eb|8---8-8-8---8---10--10-10-10--10-|  |--8---8---8---8-10\--------------|


GUITAR SOLO:

G |--------------------------------|
D |--------------------------------|
A |-----6-6-------6---6-------6----|   (or anything like that) x4
Eb|0-----------0----------0--------|


SAXOPHONE SOLO:

G |--------------------------------|  |---------------------------------|
D |--------------------------------|  |----------------------6----4-----|
A |1-----1-----1-------------------|  |-----------------------------6---|
Eb|----------2-----5-----5-----5---|  |3-----3-----3---5----------------|

G |--------------------------------|  |---------------------------------|
D |--------------------------------|  |---------------------------------|
A |1-----1-----1-------------------|  |---------------------------------|
Eb|----------2-----5-----5-----5---|  |3-----3-----3---/13-----1--------|

AFTER THE SAXOPHONE SOLO:

G |--------------------------------|  |---------------------------------|
D |--------------------------------|  |---------------------------------|
A |----6-6-----4-------6-6-----4---|  |----6-6-----4-------6-6------4---|
Eb|0---------7---7-0---------7-----|  |0---------7---7-0----------7-----|

G |--------------------------------|  |---------------------------------|
D |--------------------------------|  |---------------------------------|
A |----6-6-----4-------6-6-----4---|  |----6-6-----4-------6-6----------|
Eb|0---------7---7-0---------7-----|  |0---------7---7-0----------3-2-1-|

PLAY AGAIN:
-->[verses 1A]
-->[verses 1B]
-->[chorus 2A]


CHORUS 3B (just the end is different):

G |--------------------------------|  |---------------------------------|
D |--------------------------------|  |---------------------------------|
A |--------------------------------|  |-----------------3---3-3-3---3---|
Eb|5---5-------5---7---7-7-7---7---|  |4---4--------4-------------------|

G |---------------------------------|  |---------------------------------|
D |---------------------------------|  |9---9---9---9---11--11--11--11---|
A |---------------------------------|  |---------------------------------|
Eb|8---8-8-8---8---10--10-10-10--10-|  |--8---8---8---8---10--10--10--10-|

G |--------------------------------|
D |--------------------------------|
A |----6-6-------------------------|
Eb|0----------5--6--7--------------|

PLAY AGAIN
--> [chorus 1A and 1B]


ENDING:

G |--------------------------------|  |----------------------------6-----|
D |--------------------------------|  |--------------------6---8---------|
A |----6-6-----4-------6-6-----4---|  |----6-6-----4---6-----------------|we are!
Eb|0---------7---7-0---------7-----|  |0---------7-----------------------|
Comments