One Over - Stupid Chords & Tabs

 

Stupid Chords & Tabs

One Over Chords & Tabs

Version: 2 Type: Bass Tab 0 ratings
1 star 2 stars 3 stars 4 stars 5 stars
comments

Stupid Bass Tab

This is the third song on the "Earache" album.

Stupid

Intro
g|----------------------------------------------------------------
d|----------------------------------------------------------------
a|-------0-1--------------------------{
e|-0-0--3-----------------------------{ x8

1st verse
g|-----------------------------------------------------------------
d|-----------------------------------------------------------------
a|-----------------------------------------------------------{
e|-0-010-00-01-0-0-010-00-01-0--2-232-22-23-2-2-232-22-23-2--{ x2

Chorus
g|--------------------------------------------------------------
d|--------------------------------------------------------------
a|-0--2-2-2-3---7-5-3--------------------------------------{
e|--------------------00-3-00--00-3-00--00-3-00--00-3-00---{ x2

2nd verse
g|---------------------------------------------------------------
d|---------------------------------------------------------------
a|----1-2------1-2-------1-2-------1-2-------{
e|-00-------00--------00--------00-----------{ x2
[ Tab from: http://www.guitartabs.cc/tabs/o/one_over/stupid_btab_ver_2.html ]
Chorus
g|---------------------------------------------------------------
d|---------------------------------------------------------------
a|0--2-2-2-3--7-5-3----------------------------{at end play 3-2-1
e|-------------------00-3-00--00-3-00--00-3-00--00-3-00-{ x2

Bridge (wait 4 measures for guitars)
g|-------------------------------------------------------------
d|-------------------------------------------------------------
a|-----3----------6-6-6*----------------{*(play at end of bridge)
e|-0-2----0-2-3-------------------------{ x4

Chorus
g|---------------------------------------------------------------
d|---------------------------------------------------------------
a|-0--2-2-2-3--7-5-3-------------------------{
e|--------------------0--3-2-1---0--3-2-1----{ x2

Ending
g|-----------------------------------------------------------------
d|-----------------------------------------------------------------
a|-------------------------------------------------------{>=cut-off
e|-0~~~~~~^--1~~~~~~~~^--0~~~~~~~~~^--1~~~~~~~~~~~~~~~~0>{

Bass, lead vocals:Ace Gentner      Guitar, vocals:Steve Browne
lead Guitar:Brian Thompson        Drums, vocals:Mark Michaletti
Comments