One Minute Silence - South Central Chords & Tabs

 

South Central Chords & Tabs

One Minute Silence Chords & Tabs

Version: 1 Type: Tab 0 ratings
1 star 2 stars 3 stars 4 stars 5 stars
comments

South Central Tab

Band-One Minute Silence
Song-South Central
Tabbed by-Zero

O.K So heres the tab for OMS South Central. I figured it out by 
ear so it may not be 100% right but it's close enough for sexually frustrated lemurs.
Plus there ain't no other tab out there so it will have to do. Stay insane. 
Zero.

Starts with fast as f**k drum riff then kicks into this.

Rhythm Fig 1.
E-----------------|
B-----------------| Repeat this riff 8 times.
G-----------------|
D-----------------|
A0-2-0-2-0-2-2-3-0|
D0-2-0-2-0-2-2-3-0|
 
Verse Riff.
E-----------------|Play these single bar chords and let the notes 
B-----------------|ring on. Play twice then back to Rhythm fig 1 G-----------------|with this break in the middle:
D-----------------|
A-2---3---2---3--5|
D-2---3---2---3--5|

Rhythm fig 2 (Prechorus)
E-----------------|-----------------|
B-----------------|-----------------|This bit is played twice with  
G-----------------|-----------------|rhythm Fig 1 as a pre chorus D-----------------|-----------------|
A-02--------------|--02-------------|
D-02--------------|--02-------------|
    I don't wanna die   Never wanna die

Then comes the good bit. The funky chorus riff.
[ Tab from: http://www.guitartabs.cc/tabs/o/one_minute_silence/south_central_tab.html ]
E---------------------------------------------------|Let the last 
B---------------------------------------------------|note ring. G---------------------------------------------------|Play 4 times.
D-(h)---(h)---(h)-----------(h)---(h)---------------|
A-0-2-2-6-7-3-3-5-------2-2-6-7-3-3-5---------------|
D-0-2-2-----------2-5-0-2-2-----------2-5-----------|

Then go back to Rhythm fig 1.

Fill 1 
E-----------------|------------------|
B-----------------|------------------|PLay this riff followed by 
G-----------------|------------------|chorus riff for 'I will not,
D---let ring------|------------------|I cannot, I will not,
A-2---------------|0-2-2-xx-xx-------|I won't.'
D-2---------------|0-2-2-xx-xx-------|
 


Fill 2.
E-----------------------------------|
B-----------------------------------|
G-----------------------------------|
D-----------------------------------|
A-2-02--2-02-2-02-2-2-222333--------|
D-2-02--2-02-2-02-2-2-222333--------|

Well thats all the riffs you'll need. Heres the order to them.

Rhythm fig 1
Verse
Pre-chorus (Rhythm Fig 1 and Rhythm fig 2)
Chorus
Rhythm Fig 1
Verse
Pre-chorus
Chorus
Fill 1 
Chorus
Rhythm fig 1
Fill 2
Rhythm fig 1

Enjoy. If anyone has any comments or suggestions get to me on 
Zeroburn@postmaster.co.uk. Later. Zero.
Comments