One Minute Silence - Rise N Shine Chords & Tabs

 

Rise N Shine Chords & Tabs

One Minute Silence Chords & Tabs

Version: 1 Type: Bass Tab 0 ratings
1 star 2 stars 3 stars 4 stars 5 stars
comments

Rise N Shine Bass Tab

Bass tabs for 
 
	Rise n Shine - One Minuite Silence. (updated version)

        Tabbed by Rossko :)

	email. fourstring@one.net.au

Drop to D tuning
                                            x2              
G------------------------------------------ 
D-----5\10----------------5\10------10\12--
A--5--------10--3------5--------10---------
D------------------------------------------ 



                                 x8
G-------------------------------
D-------------------------------
A--4H5--4H5--4H5--4H5--4H5-4H5--
D-------------------------------


                                x8
G------------------------------
D------------------------------
A-------3H5--------3H5----3H4--
D-00-0-------0--0------00------



G------------------------------------------ 
D-----5\10----------------5\10------10\12--
A--5--------10--3------5--------10---------
D------------------------------------------



G----------------------------------------------------------------
D-----5\10----------------5\10H12-10H12-10H12-10H12-10H12-10H12--
A--5--------10--3------5-----------------------------------------
D----------------------------------------------------------------


                                 x8
G-------------------------------
D-------------------------------
A--------3H5--------3H5----3H4--
D--00-0-------0--0------00------

[ Tab from: http://www.guitartabs.cc/tabs/o/one_minute_silence/rise_n_shine_btab.html ]
                                              
G-------------------------------------
D-----5\10-----------5\10------10\12--
A--5-------10/7\13--------10----------
D-------------------------------------



G------------------------------------
D-----5\10-----------5\10--\15--12/--
A--5-------10/7\13-------------------
D------------------------------------


                                               
G-------------------------------------
D-----5\10-----------5\10------10\12--
A--5-------10/7\13---------10---------
D-------------------------------------



G------------------------------------
D-----5\10-----------5\10--\15--12/--
A--5-------10/7\13-------------------
D------------------------------------



G-----------------------------------
D-----5\10-----------5\10------10/--
A--5-------10/7\13---------10-------
D--0--------------------------------


G-------------------------------------------
D-----5\10-----------5\10-------------------
A--5-------10/7\13---------5-5-5-5-5-5-5-5--
D--0----------------------------------------


                                x16
G-------------------------------
D-------------------------------
A--------3H5--------3H5----3H4--
D--00-0-------0--0------00------



G------------------------------------------ 
D-----5\10----------------5\10------10\12--
A--5--------10--3------5--------10---------
D------------------------------------------



G------------------------------------------------- 
D-----5\10----------------5\10--15--10--12 ~~~~~--
A--5--------10--3------5--------------------------
D-------------------------------------------------

Comments