One Minute Silence - Holy Man Chords & Tabs

 

Holy Man Chords & Tabs

One Minute Silence Chords & Tabs

Version: 2 Type: Tab 0 ratings
1 star 2 stars 3 stars 4 stars 5 stars
comments

Holy Man Tab

Song: Holy Man
Artist: One Minute Silence
Tabbed by: Russell Ledger

I think this is pretty close but if theres anyting wrong with
 it im not far off.

v=vibrato        m= Palm muted

Intro

e-----------------------------------------------------------------
b-----------------------------------------------------------------
g----4-------4-----------4---4--------4-------4-----------4---4---
d-------5-------5------5---5---5---------5-------5------5---5---5-
a-----------------------------------------------------------------
e-----------------------------------------------------------------
        v       v                        v       v   

Verse
[ Tab from: http://www.guitartabs.cc/tabs/o/one_minute_silence/holy_man_tab_ver_2.html ]
e-------------------3h5-------------------------3h5------------
b--------------------------------------------------------------
g-----0h2-----0h2-----------------0h2-----0h2------------------
d--------------------------------------------------------------
a--------------------------------------------------------------
e--------------------------------------------------------------


Chorus
e--------------------------------------------------
b--------------------------------------------------
g--------------------------------------------------
d---4/5---5-5---5-5----5-5-------------------------
a---4/5---5-5---5-5----5-5-------------------------
e---2/3---3-3---3-3----3-3-------------------------
           m


Interlude bit where he sings "say what?!"
e--------------------------------------------------
b--------------------------------------------------
g--------------------------------------------------
d----5-5-5-4-5----5-5-5-4-5------------------------
a----5-5-5-4-5----5-5-5-4-5------------------------
e----3-3-3-2-3----3-3-3-2-3------------------------

Any corrections (but not hate mail) send to maladramatic_fool@ho
Comments