One Minute Silence - Holy Man Chords & Tabs

 

Holy Man Chords & Tabs

One Minute Silence Chords & Tabs

Version: 1 Type: Tab 0 ratings
1 star 2 stars 3 stars 4 stars 5 stars
comments

Holy Man Tab

One Minute Silence - Holy Man - Buy Now...Saved Later 

Tabbed by trent

Standard Tuning
The timings are rough guides.
Riff II isn’t exact so if your good then you can change it!
I have added times so you don’t get lost to were things fit in.

Intro  (0:15) Clean Tone
E-----------------------------------------|
B-----------------------------------------|
G-----------------------------------------|  X4
D---5---5-----5b-5b-----------------------|
A-----------------------------------------|
D-----5---5-5-------5---------------------|

Riff I:(0:37)

Guitar I:  Distortion
E-----------------------------------------|
B-----------------------------------------|
G-----------------------------------------|  X8
D-3-5-5-5-5-3-5-5-5-5-5-5-5---------------|  
A-3-5-5-5-5-3-5-5-5-5-5-5-5---------------|
D-3-5-5-5-5-3-5-5-5-5-5-5-5---------------|
  

Guitar I:  Distortion

E------------------------3----------------|
B---------------------3-------------------|
G-----------------------------------------|  X8
D-----------------------------------------|
A-----------------------------------------|
D-----------------------------------------|
                      

[ Tab from: http://www.guitartabs.cc/tabs/o/one_minute_silence/holy_man_tab.html ]
Bridge I: (0:58)  Distortion
E-----------------------------------------|
B-----------------------------------------|
G-----------------------------------------|  X1
D-3-5-5-5-5-3-5-5-5-5-5-5-5-3-6-5-6-5-----|
A-3-5-5-5-5-3-5-5-5-5-5-5-5-3-6-5-6-5-----|
D-3-5-5-5-5-3-5-5-5-5-5-5-5-3-6-5-6-5-----|

Chorus: (1:00)  Distortion

E-----------------------------------------|
B-----------------------------------------|
G-----------------------------------------|  X8
D-6-5----6-5-6-5---6-5-6-3----------------|
A-6-5----6-5-6-5---6-5-6-3----------------|
D-6-5----6-5-6-5---6-5-6-3----------------|


Riff 1: (1:23) X11
Bridge: (1:55) X1
Chorus: (1:57) X8
Intro:  (2:20) X3

Bridge II: (2:29) 
E-------------------------|
B-------------------------|
G-------------------------|  X1
D--5----5-------5-3-5-3---|
A---------------5-3-5-3---|
E----5----5-5---5-3-5-3---|
( Clean Tone ) (Distortion)

Riff II: (2:31) 
E-----------------------------------------|
B-----------------------------------------|
G-----------------------------------------|  X12
D-0-3-5-0-3-5-0-3-5-0-3-5-0-3-5/6\5-------|
A-0-3-5-0-3-5-0-3-5-0-3-5-0-3-5/6\5-------|
D-0-3-5-0-3-5-0-3-5-0-3-5 0-3-5/6\5-------|

Riff 1: (3:06) X7
Bridge 1: (3:28) X1
Chorus: (3:30) X12


I hope you enjoy playing this because it took me 3 solid weeks!!



Comments