One Inch Punch - Stupid Me Chords & Tabs

 

Stupid Me Chords & Tabs

One Inch Punch Chords & Tabs

Version: 1 Type: Bass Tab 0 ratings
1 star 2 stars 3 stars 4 stars 5 stars
comments

Stupid Me Bass Tab

------------------------------------------------------------------
		     STUPID ME - One Inch Punch
------------------------------------------------------------------
By: Dave Wilson (nougeypooge@hotmail.com for requests)

Intro (x4)
G|-----------------------------------------|
D|-----------------------------------------|
A|-2-2-2-2--2-2-2-2------------------------|
E|-------------------2-2--3-3--2-2--5-5----|

Pre Verse
G|------------------------------------|
D|------------------------------------|
A|------------------------------------|
E|-3-3-3-3--3-3-3-3--2--3-3-3-3--3----|

Verse (x4)
G|-----------------------------------------|
D|-----------------------------------------|
A|-2-2-2-2--2-2-2-2------------------------|
E|-------------------2-2--3-3--2-2--3-3----|

Pre Chorus
G|----------------------------------------|
D|----------------------------------------|
A|----------------------------------------|
E|-5-5-5-5--2-2--3-3--5-5-5-5--3-3-3-2----|
[ Tab from: http://www.guitartabs.cc/tabs/o/one_inch_punch/stupid_me_btab.html ]
Chorus (x2)
G|---------------------------------------|
D|---------------------------------------|
A|-2-2-2-2-------------------------------|
E|----------2-2-2-2--3-3-3-3--5-5-5-5----|

Post Chorus
G|---------------------------------------|
D|---------------------------------------|
A|---------------------------------------|
E|-3-3-3-3--2-2-2-2--3-3-3-3--2-2-3-2----|
Intro (x2)
Pre Verse
Verse (x4)
Pre Chorus
Chorus (x4)

Bridge Part
G|---------------------------------------------------------------|
D|---------------------------------------------------------------|
A|-2-2-2-2---------------------2-2-2-2--------------------2-2-2--|
E|----------3-3-2--3-3-2-(x2)-----------2-3-3-3-2--2-3-5---------|
Verse (x6)
Chorus (x2)

Ending
G|---------------------------------------------------------------|
D|---------------------------------------------------------------|
A|---------------------------------------------------------------|
E|-3-3-3-3--2-2-2-2--3-3-3-3--2-2--3-5--7-7-7-7------------------|


Comments