One Fell Swoop - Two Coins Chords & Tabs

 

Two Coins Chords & Tabs

One Fell Swoop Chords & Tabs

Version: 1 Type: Tab 0 ratings
1 star 2 stars 3 stars 4 stars 5 stars
comments

Two Coins Tab

August 9, 2000

I noticed there wasnt any One Fell Swoop and this is my first tab, so here goes...

Intro

---------------------0--0----0---3-------------------------------------------0--0----0-----3---------------------------
---------------------3--3----1---3-------------------------------------------3--3----1-----3---------------------------
----0--4^5^4--0----2--2--  0---0-----3^0-0--3^0--------0--4^5^4--0-----2--2----0-----0---------------------------
------------------0----------2---0------------------3-0------------------0-----------2-----0---------------------------
-----------------------------3---2----------------------------------------------------3-----2----------------------------
---------------------------------3-----------------------------------------------------------3----------------------------

[ Tab from: http://www.guitartabs.cc/tabs/o/one_fell_swoop/two_coins_tab.html ]
I stick loneliness, your lips and the two coins of your eyes, into my pockets
well the train skates into Port Henry, late Sunday
sometimes when im riding high, feeling fine, ya know theres something troubling you, troubling in my mind
so i reach into my pockets for some small change, i reach into my pockets for some small change

Refrain

-----5--5--5--5----7--7--7--7-----7---7---7----7----5--5--5---3---3---3---3--------
-----7--7--7--7----8--8--8--8-----8---8---8----8----7--7--7---5---5---5---5--------
-----7--7--7--7----9--9--9--9-----7---7---7----7----7--7--7---5---5---5---5--------
-----7--7--7--7----9--9--9--9-----9---9---9----9----7--7--7---5---5---5---5--------
-----5--5--5--5----7--7--7--7----10--10--10--10----5--5--5---3---3---3---3-------
-----------------------------------------------------------------------------------------

Play intro through second verse with exception of riff after G chord

I want bones like iron, blood like mercury, 
so i can tell you when im rising, when im sinking in, im sinking in, im sinking in, im sinking in

I reach into my pocket for some small change (twice)

Back to refrian,  played twice with harmonica solo

Intro (played over)

gonna take it to the people, yeah ah (4)
hey lets drink from the cup, share some love
go ahead and laugh cause it dont cost much
no no dont dont cost much (riff after G chord)

I stick loneliness, your lips and the two coins in your eyes into my pockets.
Comments