One Dollar Short - Showdown Chords & Tabs

 

Showdown Chords & Tabs

One Dollar Short Chords & Tabs

Version: 1 Type: Tab 0 ratings
1 star 2 stars 3 stars 4 stars 5 stars
comments

Showdown Tab

   
One Dollar Short 
"Showdown" 
 TAB: by Ryan Storey with no help from Rod

%= PALM MUTE 

e-|----------------------------------------------------- 
b-|----------------------------------------------------- 
g-|----------------------------------------------------- 
d-|-----------------------------------7-%-%-%-%-%-%-%-%- 
a-|-X-X-X-X-X-X-X-X-5-%-%-%-%-%-%-%-%-5-%-%-%-%-%-%-%-%- 
E-|-X-X-X-X-X-X-X-X-3-%-%-%-%-%-%-%-%------------------- 

e-|-----------------------------------------| 
b-|-----------------------------------------| 
g-|-----------------------------------------| 
d-|-9-%-%-%-%-%-%-%-%-5--5-5-4-4-4-4-4------| 
a-|-7-%-%-%-%-%-%-%-%-3--3-3-3-3-3-3-3------| 
E-|-----------------------------------------| 

          riff one 
e-|-----------------------------------------------------------------| 
b-|-----------------------------------------------------------------| 
g-|-----------------------------------------------------------------| 
d-|-------------------7-%-%-%-%-%-%-%-%-5-%-%-%-%-5-5-5-5-5---5---5-| 
a-|-5-%-%-%-%-%-%-%-%-5-%-%-%-%-%-%-%-%-3-%-%-%-%-3-3-3-3-3---3---3-| 
E-|-3-%-%-%-%-%-%-%-%-----------------------------------------------| 

e-|--------------------------- 
b-|--------------------------- 
g-|--------------------------- 
d-|-------------7-7-7-7-7-7--- 
a-|-5-5-5-5-5-5-5-5-5-5-5-5--- 
E-|-3-3-3-3-3-3--------------- 

e-|---------------------------------------- 
b-|---------------------------------------- 
g-|---------------------------------------- 
d-|9-9-9-9-9-9-5-5-5-4-4-4-4-4------------- 
a-|7-7-7-7-7-7-3-3-3-3-3-3-3-3-5-5-5-5-5-5- 
E-|----------------------------3-3-3-3-3-3- 

e-|-------------------------------------|-----|----------| 
b-|-------------------------------------|-----|----------| 
g-|------------------------------7-7-7--|-----|----------| 
d-|7-7-7-7-7-7-5-5-5-4-4-4-5-5-5--------|x-2--|----------| 
a-|5-5-5-5-5-5--------------------------|-----|----------| 
E-|-------------------------------------|-----|----------| 

    solo 
e-|----------------------------------------------------- 
b-|-------------3-3---------5-5---------8-8-7-7-5-5-7-7- 
g-|-0-0-4-4-5-5-----4-4-5-5-----4-4-5-5----------------- 
d-|----------------------------------------------------- 
a-|----------------------------------------------------- 
E-|----------------------------------------------------- 

e-|------------------------------------------| 
b-|--------------3-3-------------------------| 
g-|-0-0-4-4-5-5-------4-4-5-5-5-5-4-4-2-2-0-0| 
d-|------------------------------------------| 
a-|------------------------------------------| 
E-|------------------------------------------| 
[ Tab from: http://www.guitartabs.cc/tabs/o/one_dollar_short/showdown_tab.html ]
                               riff two 
e-|--------------|--------|--------------- 
b-|--------------|--------|--------------- 
g-|-2-2-4-4--5--5|--------|--------------- 
d-|--------------|backto- |--------------- 
a-|--------------|riff one|-5-5-5-5-5-5-5- 
E-|--------------|--------|-3-3-3-3-3-3-3- 

e-|--------------------------------------------- 
b-|--------------------------------------------- 
g-|--------------------------------------------- 
d-|7-7-7-7-7-7-7-------------------------------- 
a-|5-5-5-5-5-5-5-2-2-2-2-2-2-2-2-5-5-5-5-5-5-5-- 
E-|--------------0-0-0-0-0-0-0-0-3-3-3-3-3-3-3-- 

e-|---------------------------------------------|---| 
b-|---------------------------------------------|---| 
g-|---------------------------------------------|---| 
d-|-7-7-7-7-7-7-7-5-5-5-5-5-5-5-5-5-5-5-5-5-5-5-|---| 
a-|-5-5-5-5-5-5-5-3-3-3-3-3-3-3-3-3-3-3-3-3-3-3-|x-2| 
E-|---------------------------------------------|---| 

e-|-------------------------------------------- 
b-|-------------------------------------------- 
g-|-------------------------------------------- 
d-|-----------------7-%-%-%-7-%-%-%------------ 
a-|-5-%-%-%-5-%-%-%-5-%-%-%-5-%-%-%------------ 
E-|-3-%-%-%-3-%-%-%---------------------------- 

                                          riff 3 
e-|-----------------------------------|---------------| 
b-|-----------------------------------|---------------| 
g-|-----------------------------------|---------------| 
d-|-9-%-%-%-9-%-%-%-5-%-%-%-%-%-%-%-%-|---------------| 
a-|-7-%-%-%-7-%-%-%-3-%-%-%-%-%-%-%-%-|-2-2-2-2-2-2-2-| 
E-|-----------------------------------|-0-0-0-0-0-0-0-| 

e-|-0-0-0-0-0-0-0-0-0-0-0-0-0-0-0-|----| 
b-|-8-8-8-7-7-7-7-5-5-5-5-7-7-7-7-|----| 
g-|-------------------------------|part| 
d-|-------------------------------|3---| 
a-|-------------------------------|----| 
E-|-------------------------------|----| 

e-|-0-0-0-0--0--0--0--0--0--0--0--0-0-0-0|----| 
b-|-8-8-8-10-10-10-10-12-12-12-12-7-7-7-7|----| 
g-|--------------------------------------|part| 
d-|--------------------------------------|2---| 
a-|--------------------------------------|----| 
E-|--------------------------------------|----| 

e-|-0-0-0-0-0-0-0-0-0-0-0-0-0-0-0-|----| 
b-|-8-8-8-7-7-7-7-5-5-5-5-3-3-3-3-|----| 
g-|-------------------------------|part| 
d-|-------------------------------|3---| 
a-|-------------------------------|----| 
E-|-------------------------------|----| 

e-|-0-0-0--0--0--0--0--0--0--0--0--0--0--0--0--|----|----| 
b-|-8-8-8-10-10-10-10-12-12-12-12-15-15-15-15--|----|----| 
g-|--------------------------------------------|----|----| 
d-|--------------------------------------------|riff|solo| 
a-|--------------------------------------------|2---|x-2-| 
E-|--------------------------------------------|----|----| 

e-|------------------------| 
b-|------------------------| 
g-|-4-4-2-2-0-0-4-4---5---5| 
d-|------------------------| 
a-|------------------------| 
E-|------------------------| 
Comments