One Dollar Short - Is This The Part Chords & Tabs

 

Is This The Part Chords & Tabs

One Dollar Short Chords & Tabs

Version: 1 Type: Tab 0 ratings
1 star 2 stars 3 stars 4 stars 5 stars
comments

Is This The Part Tab

Hope you like my first tab,   ive got it all except the little bridge that they do
in octives,

INTRO

guitar 1
e----------------------------
b-10-10-8-8-7-7--------------
g--7--7-7-7-7-7--------------       x 21
d----------------------------
a----------------------------
e----------------------------

guitar 2
e---------------------------------
b---------------------------------
g----------------77777------------   x 2
d--99999--55555--77777--77777-----
a--99999--55555--55555--77777-----
e--77777--33333---------55555-----

bass bit


guitar 1 and 2
e------------------
b------------------
g-777--------------
d-777-777-555555---       x2
a-555-777-555555---
e-----555-333333---

bass bit
[ Tab from: http://www.guitartabs.cc/tabs/o/one_dollar_short/is_this_the_part_tab.html ]
guitar 1 and 2
e------------------
b------------------
g-777--------------
d-777-777-555555---       x4
a-555-777-555555---
e-----555-333333---

LITTLE OCTAVE BIT I DONT KNOW

little bass bit

guitar 1 and 2
e------------------
b------------------
g-777--------------
d-777-777-555555---       x4
a-555-777-555555---
e-----555-333333---

guitar 1
e------------------
b------------------
g-777--------------
d-777-777-555555---       
a-555-777-555555---
e-----555-333333---

guitar 1
e----------------------------
b-10-10-8-8-7-7--------------
g--7--7-7-7-7-7--------------       x 7
d----------------------------
a----------------------------
e----------------------------


MORE OCTAVE STUFF

guitar 2   WHILE GUITAR 1 DOES DIFFERENT OCTAVE BITS
e------------------
b------------------
g-777--------------
d-777-777-555555---           
a-555-777-555555---
e-----555-333333---

DO THAT TILL FINISHED     I THINK THATS ALL OF IT
Comments