One Direction - Story Of My Life Chords & Tabs

 

Story Of My Life Chords & Tabs

One Direction Chords & Tabs

Version: 3 Type: Tab 0 ratings
1 star 2 stars 3 stars 4 stars 5 stars
comments

Story Of My Life Tab

   
Story Of My Life

Capo 3

Chords Used Am F C G

Intro
     Am                                C        F       C       F
e|------------0----------------0--------------------------------------------|
B|-------1-----1--1-------1----1--1-------1------1------1------1------------|
G|---------2--------2-------2-------2-------0------0------0------0----------|  
D|-----2--------2-------2-------2--------2------3------2------3------------x2
A|---0-----------------0----------------3------3------3------3--------------|
E|--------------------------------------------------------------------------|

Verse 1

Am                                     C        F       C       F
e|------------0----------------0--------------------------------------------|
B|-------1-----1--1-------1----1--1-------1------1------1------1------------|
G|---------2--------2-------2-------2-------0------0------0------0----------|
D|-----2--------2-------2-------2--------2------3------2------3------------x2
A|---0-----------------0----------------3------3------3------3--------------|
E|--------------------------------------------------------------------------|
[ Tab from: http://www.guitartabs.cc/tabs/o/one_direction/story_of_my_life_tab_ver_3.html ]
Am         F            C       F      C          F
e|------------0---------------0---------------------------------------------|
B|-------1-----1--1------1----1--1-------1------1------1------1-------------|
G|---------2--------2------2-------2------0------0------0------0------------|
D|-----2--------2-------3-------3-------2------3------2------3-------------x2
A|---0---------------------------------3------3------3------3---------------|
E|---------------------1----------------------------------------------------|
      C    G     Am                     G
e|-----------------0----0---------------------------------------------------|
B|-----1-----3------1----1---------------3-----3-----0---0------------------|
G|------0-----0------2----2---------------0-----0-----0---------------------|
D|----2--2--0--0--2----2-----x3-then----0--0--0--0--0--0--------------------|
A|---3-----------0----0-----------------------------------------------------|
E|---------3---------------------------3-----3-----3------------------------|

Chorus

     C                             F
e|---------0-------------0-----------0-----------0--------------------------|
B|------1----1--1-----1----1--1----1---1--1----1---1--1---------------------|
G|-------0-------0-----0-------0----2------2----2------2--------------------|
D|-----2--2---2------2--2---2-----3-----2-----3-----2-----------------------|
A|---3-------------3-------------3-----------3------------------------------|
E|--------------------------------------------------------------------------|

     Am                           C     F    C    F
e|---------0------------0---------------------------------------------------|
B|------1----1--1----1----1--1----1----1----1----1--------------------------|
G|-------2-------2----2-------2----0----0----0----0-------------------------|
D|-----2--2---2-----2--2---2-----2----3----2----3---------------------------|
A|---0-------------0------------3----3----3----3----------------------------|
E|--------------------------------------------------------------------------|

Repeat the chorus part

Verse 2 is the same as verse 1

Repeat the entire chorus(the Chorus part twice)

Bridge (single strums)
     Am  F   C       Am  F   C      C   F   Am  C
e|---0---1---X------0---1---X------X---1---0---0----------------------------|
B|---1---1---1------1---1---1------1---1---1---1----------------------------|
G|---2---2---0------2---2---0------0---2---2---0----------------------------|
D|---2---3---2------2---3---2------2---3---2---2----------------------------|
A|---0---3---3------0---3---3------3---3---0---3----------------------------|
E|-------1---3----------1---3------3---1-------3----------------------------|

End Chorus is the chorus part twice and end on C

Hope this helps people :)
Comments