One Direction - Midnight Memories Chords & Tabs

 

Midnight Memories Chords & Tabs

One Direction Chords & Tabs

Version: 1 Type: Bass Tab 0 ratings
1 star 2 stars 3 stars 4 stars 5 stars
comments

Midnight Memories Bass Tab

   
-------------------------------------------------------------------------------
                                                   Midnight Memories - One Direction
-------------------------------------------------------------------------------
Tabbed by: David Parfett
E-mail: dbparfett@gmail.com
Tuning: E A D G 

Hey! if you have any tabs you'd like to me to make for you just comment below or 
send me an email. Thanks and enjoy!


Intro/Verse  0:00


G|-----------------------------------------------------------------------------|
D|-----------------------------------------------------------------------------|
A|------------------2-4-5-4-2-0-------------------------2-4-5-4-2-0------------|
E|-0-0------0-2-4-5-------------5-4-2--0-0------0-2-4-5-------------5-4-2--0-0-|

G|--------------------------------|
D|--------------------------------|
A|---------2-4-5-4-2-0------------|
E|-0-2-4-5-------------5-4-2--0-0-|


Pre-Chorus  0:24

 10's and 12's
G|---------------------------------------------------------------------------|
D|---------------------------------------------------------------------------|
A|---------------------------------------------------------------------------|
E|-5555555555555555-8888888888888888-10101010101010101010101010101010-1212---|


Chorus  0:36


G|-------------------------------------------------------|
D|------------------2h4--6-4-2---------------------------|
A|------0-0--2-2---------------4-2----------0-0--2-2-----|
E|-0-0-----------------------------0-0--2h4--------------|

G|------------------------------------------------------------------|
D|----------------------2h4--6-4-2----------------------------------|
A|----------0-0--2-2---------------4-2----------0-0--22--22--22--22-|
E|-0-0--2h4----------------------------0-0--2h4---------------------|


Verse  1:02


G|-----------------------------------------------------------------------------|
D|-----------------------------------------------------------------------------|
A|------------------2-4-5-4-2-0-------------------------2-4-5-4-2-0------------|
E|-0-0------0-2-4-5-------------5-4-2--0-0------0-2-4-5-------------5-4-2--0-0-|

G|--------------------------------|
D|--------------------------------|
A|---------2-4-5-4-2-0------------|
E|-0-2-4-5-------------5-4-2--0-0-|

[ Tab from: http://www.guitartabs.cc/tabs/o/one_direction/midnight_memories_btab.html ]

Pre-Chorus  1:22

 10's and 12's
G|---------------------------------------------------------------------------|
D|---------------------------------------------------------------------------|
A|---------------------------------------------------------------------------|
E|-5555555555555555-8888888888888888-10101010101010101010101010101010-1212---|


Chorus  1:35


G|-------------------------------------------------------|
D|------------------2h4--6-4-2---------------------------|
A|------0-0--2-2---------------4-2----------0-0--2-2-----|
E|-0-0-----------------------------0-0--2h4--------------|

G|------------------------------------------------------------------|
D|----------------------2h4--6-4-2----------------------------------|
A|----------0-0--2-2---------------4-2----------0-0--22--22--22--22-|
E|-0-0--2h4----------------------------0-0--2h4---------------------|


Bridge  2:00


G|---------------------------------------------------------------------|
D|---------------------------------------------------------------------|
A|-4444444444444444-----------------------------------2222222222222222-|
E|------------------5555555555555555-0000000000000000------------------|

G|---------------------------------------------------------------------|
D|---------------------------------------------------------------------|
A|-4444444444444444-----------------------------------2222222244446666-|
E|------------------5555555555555555-0000000000000000------------------|

G|-------------------------------------|
D|-------------------------------------| 11 and 14 are 16th notes but it's
A|-77779999-11-11-11-11-14-14-14-14----| a little easier to read this way
E|-------------------------------------|


No Bass  2:28


Chorus  2:34


G|----------------------------------------------------------------------------------------------|
D|---------------------------------------------2h4--6-4-2---------------------------------------|
A|----------0-0--2-2---------------0-0--2-2---------------4-2----------0-0--22--22--22--22------|
E|-0-0--2h4---------------0-0--2h4----------------------------0-0--2h4----------------------0-0-|


| /  slide up
| \  slide down
| h  hammer-on
| p  pull-off
| ~  vibrato
| +  harmonic
| x  Mute note
===============================================================================
Comments