One Direction - Better Than Words Chords & Tabs

 

Better Than Words Chords & Tabs

One Direction Chords & Tabs

Version: 1 Type: Bass Tab 0 ratings
1 star 2 stars 3 stars 4 stars 5 stars
comments

Better Than Words Bass Tab

   
-------------------------------------------------------------------------------
                                                 Better Than Words - One Direction
-------------------------------------------------------------------------------
Tabbed by: David Parfett 
E-mail: dbparfett@hotmail.com
Tuning: B E A D   or   E A D G 

Hey! This tab is played on a 5-string bass but I also made it to be played on 
a 4-string by changing the note on the B string up an octive. If there is any
songs you'd wish for me to tab for you just send an me an email or comment below

Thanks and enjoy! 


                          
D|-----------------------|
A|-----------------------|
E|-------33-----77777-55-|
B|-33333-----------------|
[ Tab from: http://www.guitartabs.cc/tabs/o/one_direction/better_than_words_btab.html ]
or                            Played throughout the whole song until  2:01  
                          
G|-----------------------|
D|-----------------------|
A|-55555-----------------|
E|-------33-----77777-55-|


2:01

                         
D|-------------------------------------------------|
A|-------------------------------------------------|
E|-3-(ring)----5-(ring)----7-(ring)----5-(ring)----|
B|-------------------------------------------------|


Back to this at 2:14 until the end


D|-----------------------|
A|-----------------------|
E|-------33-----77777-55-|
B|-33333-----------------|

or                           
                          
G|-----------------------|
D|-----------------------|
A|-55555-----------------|
E|-------33-----77777-55-|



| /  slide up
| \  slide down
| h  hammer-on
| p  pull-off
| ~  vibrato
| +  harmonic
| x  Mute note
===============================================================================
Comments