One Bad Son - Retribution Blues Chords & Tabs

 

Retribution Blues Chords & Tabs

One Bad Son Chords & Tabs

Version: 1 Type: Tab 0 ratings
1 star 2 stars 3 stars 4 stars 5 stars
comments

Retribution Blues Tab

   
Song: Retribution Blues
Artist: One Bad Son
Tab by: D. Huson

Verse
     C#                                            4X
E---------------------------------------------------------------------------|I
A----4--x--4---------------------4--x--4------------------------------------|I
D----6--x--6----8-6h8p6----------6--x--6-----8---6--------------------------|I
G---------------------------------------------------------------------------|I
B---------------------------------------------------------------------------|I
E---------------------------------------------------------------------------|I
                                                                               Walk
      The line waste my songs
[ Tab from: http://www.guitartabs.cc/tabs/o/one_bad_son/retribution_blues_tab.html ]
Chorus
      F#            G#    F#                4X          F#
E------2--x--2--2-/-4-\-2------------------------2-2-2-2---------------------|I
A------4--x--4--4-/-6-\-4------------------------4-4-4-4---------------------|I
D----------------------------------------------------------------------------|I
G----------------------------------------------------------------------------|I
B----------------------------------------------------------------------------|I
E----------------------------------------------------------------------------|I
      You were my lover

  Verse 1                  G#               F#                 C#
E-------------I-------4-4-4-4------2-2-2-2-----------------------------------|I
A-------------I-------6-6-6-6------4-4-4-4--------4-4-4-4--------------------|I
D-------------I-----------------------------------6-6-6-6--------------------|I
G-------------I--------------------------------------------------------------|I
B-------------I--------------------------------------------------------------|I
E-------------I--------------------------------------------------------------|I
                You say you know about the hell you put me through

Its one of these bars throughout the song. Just listen and youll get it. The strumming 
pattern changes but the fingering is basically as shown with occasional changes.
Comments