Omd - Enola Gay Chords & Tabs

 

Enola Gay Chords & Tabs

Omd Chords & Tabs

Version: 2 Type: Tab 0 ratings
1 star 2 stars 3 stars 4 stars 5 stars
comments

Enola Gay Tab

yes it's organ/keyboard/whatever but anyway here it is
for guitar

intro and verse
e-1---1-0-1---1-0-|-1---1-0-1---3-0-|
B-----------------|-----------------|
G-----------------|-----------------|
D---3-------3-----|---3-------3-----|
A-----------------|-----------------|
E-----------------|-----------------|

e-1---1-0-1---1-0-|-1---1-0-1---3-0-|
B-----------------|-----------------|
G-----------------|-----------------|
D---0-------0-----|---0-------0-----|
A-----------------|-----------------|
E-----------------|-----------------|

e-1---1-0-1---1-0-|-1---1-0-1---3-0-|
B-----------------|-----------------|
G-----------------|-----------------|
D-----------------|-----------------|
A---1-------1-----|---1-------1-----|
E-----------------|-----------------|

e-1---1-0-1---1-0-|-1---1-0-1---3-0-|
B-----------------|-----------------|
G-----------------|-----------------|
D-----------------|-----------------|
A---3-------3-----|---3-------3-----|
E-----------------|-----------------|

main 'riff' (to get the exact keyboard melody you need
to use octave playing but that's a tad tricky when
it's this quick so it's easier to ignore that)
e-----5-6-8-6-5---|-----5-6-8-6-5---|
B-6-6-----------6-|---6-------------|
G-----------------|-----------------|
D-----------------|-----------------|
A-----------------|-----------------|
E-----------------|-----------------|

e-------3-5-3-----|-------5-3-------|
B-3-3-6-------6-3-|---3-6-------6---|
G-----------------|-----------------|
D-----------------|-----------------|
A-----------------|-----------------|
E-----------------|-----------------|
[ Tab from: http://www.guitartabs.cc/tabs/o/omd/enola_gay_tab_ver_2.html ]
e-----------------|-----------------|
B-----3-4-6-4-3---|-----3-4-6-4-3---|
G-3-3-----------3-|---3-------------|
D-----------------|-----------------|
A-----------------|-----------------|
E-----------------|-----------------|

e-----------------|-----------------|
B-----5-6-8-6-5---|-----5-8-6---5---|
G-5-5-----------5-|---5-------------|
D-----------------|-----------------|
A-----------------|-----------------|
E-----------------|-----------------|

a little after the words "comin home" there's a
keyboard solo thing which is: (play twice)
e-----------------|-----------------|
B-----------------|-----------------|
G-2---3-2---------|---0-2-3-5-3-2---|
D-3---3-3---------|---3-3-3-3-3-3---|
A-----------------|-----------------|
E-----------------|-----------------|

e-----------------|-----------------|
B-----------------|-----------------|
G-2---------------|-----2---0-------|
D-0---0-0---------|-----0-------3---|
A-----------------|-----------------|
E-----------------|-----------------|

e-----------------|-----------------|
B-----------------|-----------------|
G-3---2-----------|-------0-2-0-----|
D-3-----3---------|-------------3---|
A-1---------------|-----------------|
E-----------------|-----------------|

e-----------------|-----------------|
B-----------------|-----------------|
G-0---2-0---------|-------------0---|
D-2-----2---------|-------------2---|
A-3---------------|-------------3---|
E-----------------|-----------------|

now all that remains has already been tabbed above,
except the end, which is just
e-----------------|
B-----------------|
G-2---------------|
D-3---------------|
A-----------------|
E-----------------|

enjoy!
Comments