Olsen Grant - Terabithia Chords & Tabs

 

Terabithia Chords & Tabs

Olsen Grant Chords & Tabs

Version: 1 Type: Tab 0 ratings
1 star 2 stars 3 stars 4 stars 5 stars
comments

Terabithia Tab

   
This is the acoustic version off his album Excerpts from a B-Movie.  Pluck the verse riff and strum the bridge and chorus.  Pretty simple but an amazing song.   

Verse:

E----------------------------------------------------------3--------
B----------3^-------------3^-------------3^-------------------------
G-----------------------2------2------------------------------------
D-------2------2----3-----------------2------2----------------------
A----3------------------------------3----------------------2--------
E--------------------------------------------------3---3---3---3----

I asked Mom why the willow cries  
She said he’s tellin’ the sun goodnight  
Trees droop, leaves bend and break  
Our oak is sobbin’ down by the lake  
I won’t be home


Bridge:
G C Am/F C G
Not even to remember
Not even to remember
[ Tab from: http://www.guitartabs.cc/tabs/o/olsen_grant/terabithia_tab.html ]
Chorus:
F C F C F C F G
The bridge to Terabithia, it’s crashin’ down
I’m gatherin’ the pieces and you’re all around

Verse:
You said you’d never leave this place  
Never leave this place
Your swing hangs from the elm alone  
Our names in an aspen

Bridge:
They’re just blackbones
They’re just blackbones

Chorus:
The bridge to Terabithia came crashin’ down
We still a queen here, so come claim your crown

Verse:
I asked Mom why the willow cries  
She said he’s tellin’ the sun goodnight

Bridge:
So goodnight
So goodnight

Outro:

E----------0--------------0-------------0-----------0-------
B-------------1--------------1-------------3-----------1----
G---------------------2-------------4------------2----------
D------2------------3-------------5------------3------------
A----3------------------------------------------------------
E-----------------------------------------------------------

Maybe everything will be alright
So goodnight
So goodnight

Comments