Oliver James - Long Time Coming Chords & Tabs

 

Long Time Coming Chords & Tabs

Oliver James Chords & Tabs

Version: 1 Type: Tab 0 ratings
1 star 2 stars 3 stars 4 stars 5 stars
comments

Long Time Coming Tab

   
Song: Long Time Coming
Artist: Oliver James

Note: Beautiful song, simple chords
      Hope they sound alright to you
      I'd want to know if the chords suck:
      expired_popcorn@hotmail.com

G	    D		Em
Everybody wants to be loved
      C         D
Every once in a while
       G        D           Em
We all need someone to hold on to
            C        D
Just like a helpless child, yeah
D                 
Can you whisper in my ear
       C           D
Let me know it's alright

Chorus:
            Em   D    C G     C         G
It's been a long time coming, down this road
    C     G                    D
And now i know, what i've been waiting for
           Em  D  C   G	       C             G
And like a lonely highway, i'm trying to get home
Em    D      C         G
Loves been a long time coming
[ Tab from: http://www.guitartabs.cc/tabs/o/oliver_james/long_time_coming_tab.html ]
You can look for a lifetime
You can love for a day
You can think you got everything but
Everything is nothing when you throw it away, yeah
Then you look in my eyes
And I have it all once again

Bridge:
D		               C         G 
Didn't know I was lost, til you found me, uh huh
D			    G   D C
Didn't know I was blind but now I see

e|--------------------------------------------------------------------|
B|--------------------------------------------------------------------|
G|----------------------------------------------------------/14--12~--|
D|--7/9--9--9\7--7--5--5/7--5--0h2--0h2--5-----7h9--12----------------|
A|------------------------------------------------------12------------|
E|--------------------------------------------------------------------|

e|--------------------------------------------------------------------|
B|-----------------------------------12--13--12~----------------------|
G|---------12----12--/16--12~-----12----------------------------------|
D|--12h14-----14--------------12--------------------------------------|
A|--------------------------------------------------------------------|
E|--------------------------------------------------------------------|

Em
can you whisper in my ear
C                D
let me know it's alright
Comments