Oleander - Yours If You Like Chords & Tabs

 

Yours If You Like Chords & Tabs

Oleander Chords & Tabs

Version: 1 Type: Tab 0 ratings
1 star 2 stars 3 stars 4 stars 5 stars
comments

Yours If You Like Tab

   
Yours If You Like- Oleander
CD: Unwind
Tabber: Mitchell (Mitchell_J@hotmail.com)
Tuning: Down a half step (Eb Ab Db Gb Bb Eb)

Here's another fairly easy Oleander tune I've done. It's all power chords!
It's the first song that was REQUESTED, and I think I did pretty well.
If there's any mistakes, (or more requests) email me.

Intro: (Guitar 1)
eb --------------------------------------15-14-12-----
Bb -15----15----15----15----15----15--------------15--
Gb ----14----14----14----14----14----14---------------
Db ---------------------------------------------------
Ab ---------------------------------------------------
Eb ---------------------------------------------------

Intro: (Guitar 2)
eb ---------------------------------------------
Bb ---------------------------------------------
Gb -7-7-7-7-7--5-5-5-5-5--4-4-4-4-4-------------
Db -7-7-7-7-7--5-5-5-5-5--4-4-4-4-4--7-7-7-7-7--
Ab -5-5-5-5-5--3-3-3-3-3--2-2-2-2-2--7-7-7-7-7--
Eb ----------------------------------5-5-5-5-5--

Intro Guitar 3?? I think it's synthesizer:
eb -------------------------------10~--
Bb -/10--8-7--8-7---------7--8-10------
Gb ----------------9-7-9---------------
Db ------------------------------------
Ab ------------------------------------
Eb ------------------------------------
[ Tab from: http://www.guitartabs.cc/tabs/o/oleander/yours_if_you_like_tab.html ]
Second half of the verse:
eb ---------------------------------------------
Bb ---------------------------------------------
Gb -7-7-7-7-7--5-5-5-5-5------------------------
Db -7-7-7-7-7--5-5-5-5-5--5-5-5-5-5--7-7-7-7-7--
Ab -5-5-5-5-5--3-3-3-3-3--5-5-5-5-5--7-7-7-7-7--
Eb -----------------------3-3-3-3-3--5-5-5-5-5--

Chorus:
eb --------------------------------------------------------------------------
Bb --------------------------------------------------------------------------
Gb -4-4-----4-4---------------4-4-----4-4------------------------------------
Db -4-4-x-x-4-4--5-5-----5-5--4-4-x-x-4-4--5-5-5--x-x--5-5-5-5-5--7-7-7-7-7--
Ab -2-2-x-x-2-2--5-5-----5-5--2-2-x-x-2-2--5-5-5--x-x--5-5-5-5-5--7-7-7-7-7--
Eb --------------3-3-x-x-3-3---------------3-3-3--x-x--3-3-3-3-3--5-5-5-5-5--

Bridge:
eb ------------------------------------------------------------------
Bb ------------------------------------------------------------------
Gb -4-4-4-4-4--------------------------------------------------------
Db -4-4-4-4-4--5-5-5-5-5--2-2-2-2-2--5-5-5-5-5--x-7/8-8-8-8-8-8-8-8--
Ab -2-2-2-2-2--5-5-5-5-5--2-2-2-2-2--5-5-5-5-5--x-7/8-8-8-8-8-8-8-8--
Eb ------------3-3-3-3-3--0-0-0-0-0--3-3-3-3-3--x-5/6-6-6-6-6-6-6-6--

The rest is just parts that are above.

Chords: D#5: 022xxx   F#5: 355xxx   G#5: 577xxx
	A5: 688xxx   A#5: x244xx   B5: x355xx   C#5: x577xx

Tab originally from: http://diehardtabs.tripod.com
Comments