Oleander - Never Again Chords & Tabs

 

Never Again Chords & Tabs

Oleander Chords & Tabs

Version: 1 Type: Tab 0 ratings
1 star 2 stars 3 stars 4 stars 5 stars
comments

Never Again Tab

   
Never Again- Oleander
CD: February Son
Tabber: Mitchell (Mitchell_J@hotmail.com)
Tuning: Dropped D down a half step (Db Ab Db Gb Bb Eb)

The final song off February Son is pretty cool, so here's the tab!

Intro/Verses:
eb ---------------------------------------------------------------------
Bb ---------------------------------------------------------------------
Gb ------------------5-5-5-5-5-5-5-5-------------------4-4-4-4-4-4-4-4--
Db -5-5-5-5-5-5-5-5--5-5-5-5-5-5-5-5--2-2-2-2-2-2-2-2--4-4-4-4-4-4-4-4--
Ab -5-5-5-5-5-5-5-5--3-3-3-3-3-3-3-3--2-2-2-2-2-2-2-2--2-2-2-2-2-2-2-2--
Db -5-5-5-5-5-5-5-5-------------------2-2-2-2-2-2-2-2-------------------
[ Tab from: http://www.guitartabs.cc/tabs/o/oleander/never_again_tab.html ]
Chorus:
eb ------------------------------------------------------------------------------
Bb ------------------------------------------------------------------------------
Gb -5-5-5-5-5-----------------------------------5-5-5-5-5-------------4-4-4-4-4--
Db -5-5-5-5-5--5-5-5-5-5--0-0-0-0-0--2-2-2-2-2--5-5-5-5-5--5-5-5-5-5--4-4-4-4-4--
Ab -3-3-3-3-3--5-5-5-5-5--0-0-0-0-0--2-2-2-2-2--3-3-3-3-3--5-5-5-5-5--2-2-2-2-2--
Db ------------5-5-5-5-5--0-0-0-0-0--2-2-2-2-2-------------5-5-5-5-5-------------

Pre-solo is the intro/verse riff. (play first 3 chords once, then lots of A#)

Solo:
eb --------------------------------------------------------
Bb --------------------------------------------------------
Gb -6-5-5-5---------------------6-5-5-5--------------------
Db ---------6-6-6-------3-3-3-----------6-6-6-------3-3-3--
Ab ---------------6-6-6-----------------------6-6-6--------
Db --------------------------------------------------------

eb --------------------------------------------------------------
Bb --------------------------------------------------------------
Gb -----------------------------------------------5-5-5-------5--
Db -5-6-6-6-5-5-3--6-6-6-5-5-3--8-8-8-6-6-6-8-8-8-------8-8-8----
Ab --------------------------------------------------------------
Db --------------------------------------------------------------

Outro is just the intro played on acoustic.

Chords: C#5: 000xxx   D#5: 222xxx   F#5: 555xxx   A#5: x244xx   B5: x355xx
When played the second time, it sounds like it's mimicked by a second guitar. 

Tab originally from: http://diehardtabs.tripod.com
Comments