Oleander - I Walk Alone Chords & Tabs

 

I Walk Alone Chords & Tabs

Oleander Chords & Tabs

Version: 1 Type: Tab 0 ratings
1 star 2 stars 3 stars 4 stars 5 stars
comments

I Walk Alone Tab

 
                          hey this is a pretty tight song,i have looked for it for a while and never found it
                          so i was just playin with some chords adn it sounded like it,i think its all pretty close,i dont know about 
                          the solo,so im not gonna try,but any way,if you havea  johnson millenium,set it to 83,for the first part
                          and either 38 or 84 for the rest,anyway here it is.





   strum these chord,the exact strumming isnt shown,do this for just the intro

e---------------------|
B-14---13---12---11---|
G-13---12---11---10---|
D-11---10----9----8---| -intro 4x 
A-11---10----9----8---|
D-11---10----9----8---|

                 verse

  gtr 1 -----------------------------------|	   ---------------------------------------|
        ---4-----4-6-----4-7-----6---4-----|	   -------4---------4-------7---6---4-----|
        -----6-------6-------6-----6---6---|       ---6---------6--------6----6---6---6---|
        -6-----6-------6-------6---------6-| -2x   -6---6-----6---6----6---6------------6-| -2x
        -----------------------------------|	   ---------------------------------------|
        -----------------------------------|       ---------------------------------------|
          this bit is palm muted
  gtr 2 ----------------------------------------------------------------------------|
	----------------------------------------------------------------------------|
	----------------------------------------------------------------------------|
	-11-11-11-11-11-11-11-11--6-6-6-6-6-6-6-8--9-9-9-9-9-9-9-9--8-8-8-8-8-6-8-6-|-6x
	-11-11-11-11-11-11-11-11--6-6-6-6-6-6-6-8--9-9-9-9-9-9-9-9--8-8-8-8-8-6-8-6-|
	-11-11-11-11-11-11-11-11--6-6-6-6-6-6-6-8--9-9-9-9-9-9-9-9--8-8-8-8-8-6-8-6-|



 both guitars


-----|
-10--|
--9--|
--7--| strum 16 times then this
--7--|
--7--|

[ Tab from: http://www.guitartabs.cc/tabs/o/oleander/i_walk_alone_tab.html ]
-----------------------------------------------------------------------|
-----------------------------------------------------------------------|
-4/6-6-6-6--6-6--6/8-8-8-8--8-8--8/10-10-10-10--10-10--10/11-11-11-11--|
-x/x-x-x-x--x-x--x/x-x-x-x--x-x--x/x---x--x--x---x--x---x//x--x--x--x--| part 1
-2/4-4-4-4--4-4--4/6-6-6-6--6-6--6/8---8--8--8---8--8---8//9--9--9--9--|
-----------------------------------------------------------------------|

        while guitar 1 plays the above guitar stums and hold this

-----|
-10--|
--9--|
--7--|
--7--|      then repeat the 16 strums of the chord beside this
--7--|

  chorus

 -----------------------------------------------|                           |-------------------|
 -14--14--14-14--7--7--7-7--11-11-11-x--9-9--9--|    on one of them it goes |-11-11-x-x-x-x-9-9-|
 -13--13--13-13--6--6--6-6--10-10-10-x--8-8--8--|                           |-10-10-x-x-x-x-8-8-|
 -11--11--11-11--4--4--4-4---8--8--8-x--6-6--6--|                           |--8--8-x-x-x-x-6-6-|
 -11--11--11-11--4--4--4-4---8--8--8-x--6-6--6--|                           |--8--8-x-x-x-x-6-6-|
 -11--11--11-11--4--4--4-4---8--8--8-x--6-6--6--|                           |--8--8-x-x-x-x-6-6-|


then do the verse again and then do the chorus,skip the part one part but do the strums only do one set of 16 strums

 then for the next verse play this with a slide if you have one,if not just bend the notes


----------------------------------------------------
----------------------------------------------------
-11/13--13--13/16-16\15----11/13--13--13/16--16/18--
----------------------------------------------------
----------------------------------------------------
----------------------------------------------------


   well thats it,except the solo,but it still sounds good without it,you need to guitars to make it sound good,
   so make somneone else learn the other part,comments or questions email at icetabboy1717@yahoo.com
   catch yall later!




  



       
Comments