Oleander - I Walk Alone Chords & Tabs

 

I Walk Alone Chords & Tabs

Oleander Chords & Tabs

Version: 1 Type: Bass Tab 0 ratings
1 star 2 stars 3 stars 4 stars 5 stars
comments

I Walk Alone Bass Tab

BTAB  : I walk Alone
ARTIST: Oleander
ALBUM : Febuary Son
AUTHOR: Charlie (cacaldi@capecod.net)
DATE  : 08/01/99


VERSE

G-------------------------------------------------------------------
D-------------------------------------------------------------------
A--4-4-4-4-4-4-4-4--------------------------------------------------
E------------------4-4-4-4-4-4-4-6-7-7-7-7-7-7-7-7-6-6-6-6-6-4-6-4--


PRE CHORUS

[ Tab from: http://www.guitartabs.cc/tabs/o/oleander/i_walk_alone_btab.html ]
G-----------------|---------------------------------------------------
D-----------------|---------------------------------------------------
A-----------------|-2h3h4-3h4--2h3h4-3h4--2h3h4-3h4--2h3h4-3h4---X15--
E--555555555555555|--------------------------------------------555555-

CHORUS

G------------------------------------------------------------
D------------------------------------------------------------
A--4-4-4-4-------------------6----4-4-4-4--------------------
E----------2-2-2-2-6-6-6-4-4---4----------2-2-2-2-6-6-6-4-4--

Play the first part of the Pre chorus, the Verse, again the first part of the Pre chorus
and the chorus.

taken from Charlie's Bass tabs http://members.tripod.com/~ccaldi

Comments