Oleander - How Could I Chords & Tabs

 

How Could I Chords & Tabs

Oleander Chords & Tabs

Version: 3 Type: Tab 0 ratings
1 star 2 stars 3 stars 4 stars 5 stars
comments

How Could I Tab

Tabbed by Jordan
Band-oleander
Song-How Could I?
Tunning-Drop D tunning

E---------6-----6---------
B-------7----7-----7----.
G----8---------8---------Two Times
D------------------------
A-----------------------.
D-6-----------------------
[ Tab from: http://www.guitartabs.cc/tabs/o/oleander/how_could_i_tab_ver_3.html ]
E-------------------------
B--------7-------7-------.
G-------8--8---8---8----Two Times
D----6-------6----------
A-7---------------------.
D------------------------
Then Strum between  these two different chords 
when lead guitar and drums enter.  
E-6---6--------
B-7---7----
G-8---8-------
D-6---7--
A-6-------

chorus riff
E------------------------
B---------------------
G-4-----------------Figure out the strum patern 
D-4--4/--6--2-------by listening to the cd
A-2--4/--6--2---------
D----4/--6--2---------

Thats it for the chords, ill tab out the solos later.

Comments