Oleander - Boys Dont Cry Chords & Tabs

 

Boys Dont Cry Chords & Tabs

Oleander Chords & Tabs

Version: 1 Type: Tab 0 ratings
1 star 2 stars 3 stars 4 stars 5 stars
comments

Boys Dont Cry Tab

Band: Oleander
Song: Boys don't cry
Tabber: Frank van Haperen (frank.vh@gmx.net)
Date: October 9th 2001


INTRO:
e-|------------------------------|
B-|------------------------------|
G-|------------------------------|
D-|------------------------------|
A-|--7---9---11---12---12-11-9---|
E-|--5---7---9----10---10-9--7---|



Git2:
e-|-------------------------------------------------------------------|
B-|-------------------------------------------------------------------|
G-|-------------------------------------------------------------------|
D-|-------------------------------------------------------------------| 3x
A-|--7-x-7--7-7-7--9-x-9--9-9-9--11-x-11--11-11-11-12-x-12--12-12-12--|
E-|--5-x-5--5-5-5--7-x-7--7-7-7--9--x-9---9--9--9--10-x-10--10-10-10--|

Git1:
e-|-----------1--1---1--3--3-1-3--4---4-3-1----------------|
B-|--4--4-2-4------4---------------------------------------|
G-|--------------------------------------------------------|
D-|--------------------------------------------------------| 2x
A-|--------------------------------------------------------|
E-|--------------------------------------------------------|


e-|--------------------------------------------------------|
B-|--4~--2~--1~--------------------------------------------|
G-|--------------3~----------------------------------------|
D-|--------------------------------------------------------|
A-|--------------------------------------------------------|
E-|--------------------------------------------------------|



INTERLUDE 1:
e-|------------------------------------------------------------------|
B-|------------------------------------------------------------------|
G-|------------------------------------------------------------------|
D-|------------------------------------------------------------------|
A-|--5-x-x-5-x-x-5-x-5-x-x-5-x-x-5-x-5-x-x-5-x-x-5-x-5-x-x-5-x-x-5-x-|
E-|--3-x-x-3-x-x-3-x-3-x-x-3-x-x-3-x-3-x-x-3-x-x-3-x-3-x-x-3-x-x-3-x-|


e-|------------------------------------------------------------------|
B-|------------------------------------------------------------------|
G-|------------------------------------------------------------------|
D-|------------------------------------------------------------------|
A-|--5-x-x-5-x-x-5-x-7-x-x-7-x-x-7-x-8-x-x-8-x-x-8-x-10x-x-10x-x-10x-|
E-|--3-x-x-3-x-x-3-x-5-x-x-5-x-x-5-x-7-x-x-7-x-x-7-x-8-x-x-8-x-x-8-x-|
    I would say I'm sorry if I thought that it would change your mind


e-|---------------------------------------------------------|
B-|---------------------------------------------------------|
G-|---------------------------------------------------------|
D-|---------------------------------------------------------|
A-|--5-x-x-5-x-x-5-x-7-x-x-7-x-x-7-x-9-x-x-9-x-x-9-x-10-----|
E-|--3-x-x-3-x-x-3-x-5-x-x-5-x-x-5-x-7-x-x-7-x-x-7-x-8------|
    but I know that this time I have said to much been too unkind


MAIN:

Git2:
e-|-------------------------------------------------------------------|
B-|-------------------------------------------------------------------|
G-|-------------------------------------------------------------------|
D-|-------------------------------------------------------------------| 4x
A-|--7-x-7--7-7-7--9-x-9--9-9-9--11-x-11--11-11-11-12-x-12--12-12-12--|
E-|--5-x-5--5-5-5--7-x-7--7-7-7--9--x-9---9--9--9--10-x-10--10-10-10--|

Git1 (play only if it's really said so):
e-|-----------1--1---1--3--3-1-3--4---4-3-1----------------|
B-|--4--4-2-4------4---------------------------------------|
G-|--------------------------------------------------------|
D-|--------------------------------------------------------| 4x
A-|--------------------------------------------------------|
E-|--------------------------------------------------------|


e-|--------------------------------------------------------|
B-|--4~--2~--1~--------------------------------------------|Git1 
G-|--------------3~----------------------------------------|
D-|--------------------------------------------------------|
A-|--12--11--9---7-----------------------------------------|Git2 instead of the above riff
E-|--10--9---7---5-----------------------------------------|



CHORUS:
[ Tab from: http://www.guitartabs.cc/tabs/o/oleander/boys_dont_cry_tab.html ]
Git 2:
e-|------------------------------------------------------------|
B-|------------------------------------------------------------|
G-|------------------------------------------------------------|
D-|--9--9-9--9---7--7-7--7------9--9-9--9-----------7--7-7--7--|
A-|--7--7-7--7---5--5-5--5------7--7-7--7-----------5--5-5--5--|
E-|------------------------------------------------------------|
        I try to laugh about it cover it all up with lies

e-|------------------------------------------------------------|
B-|------------------------------------------------------------|
G-|------------------------------------------------------------|
D-|--9--9-9--9---7--7-7--7------9--9-9--9-----------7--7-7--7--|
A-|--7--7-7--7---5--5-5--5------7--7-7--7-----------5--5-5--5--|
E-|------------------------------------------------------------|
        I try to laugh about it holding the tears in my eyes    cause


e-|--------------------------------------------------------------------------|
B-|--------------------------------------------------------------------------|
G-|--------------------------------------------------------------------------|
D-|--------------------------------------------------------------------------|
A-|--7-x-7--7-7-7--9-x-9--9-9-9--11-x-11--11-11-11-12-x-12--12-12-12--12-11-9|
E-|--5-x-5--5-5-5--7-x-7--7-7-7--9--x-9---9--9--9--10-x-10--10-10-10--10-9--7|
     Boys~        don't~         cry~

e-|--------------------------------------------------------------------------|
B-|--------------------------------------------------------------------------|
G-|--------------------------------------------------------------------------|
D-|--------------------------------------------------------------------------|
A-|--7-x-7--7-7-7--9-x-9--9-9-9--11-x-11--11-11-11-12-x-12--12-12-12--12-11-9|
E-|--5-x-5--5-5-5--7-x-7--7-7-7--9--x-9---9--9--9--10-x-10--10-10-10--10-9--7|
     Boyiyoiyoys~        do-u-on't~         cry~

e-|--------------------------------------------------------------------------|
B-|--------------------------------------------------------------------------|
G-|--------------------------------------------------------------------------| 2x
D-|--------------------------------------------------------------------------|
A-|--7-x-7--7-7-7--9-x-9--9-9-9--11-x-11--11-11-11-12-x-12--12-12-12--12-11-9|
E-|--5-x-5--5-5-5--7-x-7--7-7-7--9--x-9---9--9--9--10-x-10--10-10-10--10-9--7|

Git1:
e-|-----------1--1---1--3--3-1-3--4---4-3-1----------------|
B-|--4--4-2-4------4---------------------------------------|
G-|--------------------------------------------------------|
D-|--------------------------------------------------------| 2x
A-|--------------------------------------------------------|
E-|--------------------------------------------------------|


e-|--------------------------------------------------------|
B-|--4~--2~--1~--------------------------------------------|
G-|--------------3~----------------------------------------|
D-|--------------------------------------------------------|
A-|--------------------------------------------------------|
E-|--------------------------------------------------------|


e-|------------------------------------------|
B-|--4b6b4~--2~--1~--------------------------|
G-|------------------3~----------------------|
D-|------------------------------------------|Then pull your fingernails all over
A-|-------------------------------------7__--|the snares from high/low (*skrzzz*)
E-|-------------------------------------5__--|



INTERLUDE 2:
e-|--------------------------------------------------9---| this is played by Git1
B-|------------------------9-----------------------------|
G-|------------------------------------------------------|
D-|------------------------------------------------------|
A-|---9-x-9-9--11-x-11-11-------9-x-9-9--11-x-11-11------| this is played by Git2
E-|---7-x-7-7--9--x-9--9--------7-x-7-7--9--x-9--9-------|
      Misjudged your limits       I Pushed you too far


e-|------------------------9-----------------------------| Git1
B-|------------------------------------------------------|
G-|------------------------------------------------------|
D-|---9-x-9-9--11-x-11-11--------7-x-7--9-x-9------------| Git2
A-|---7-x-7-7--9--x-9--9---------5-x-5--7-x-7------------|
E-|------------------------------------------------------|
       I took you for granted   I thought that you needed more


ORDER:


Intro
Interlude 1
Main
Chorus
*silence*
Interlude 2
Main (only 2x)
Main (with Git1)

Comments