Oleander - Benign Chords & Tabs

 

Benign Chords & Tabs

Oleander Chords & Tabs

Version: 1 Type: Tab 0 ratings
1 star 2 stars 3 stars 4 stars 5 stars
comments

Benign Tab

Benign by: OLEANDER

tuning: drop d half step down

Verse/Intro
listen to song and find the rythym

e-------------------------------------------------------
b--------------------------------------------------------
g----14--------14----------12----------12----------                (Use wah and slight distortion)
d----14--------14----------12----------12---------
a----12--------12----------10----------10-------------
e--------------------------------------------------
"would it be so hard for..........."

Pre Chorus:
[ Tab from: http://www.guitartabs.cc/tabs/o/oleander/benign_tab.html ]
figure out the rythym
e--------------------------------------
b-------------------------------------------
g----------------------------------------
d-----x-x--2---x--x---4---x--x-----5              (DISTORTION)
a-----x-x--2---x--x---4---x--x-----5
e-----x-x--2---x--x---4---x--x-----5
"All of this time, Its been benign"

Chorus

figure out the rythym
e------------------------------
b-----------------------------
g---7------9------11-------12
d---7------9------11-------12                 (DISTORTION)
a---5------7------9--------10
e-----------------------------
"Only heaven knows........"

I never figured out the lead this is the basic riffs
its not exact but it sounds good
Tabbed by THE_CALEB
Comments