Oleander - Are You There Chords & Tabs

 

Are You There Chords & Tabs

Oleander Chords & Tabs

Version: 1 Type: Tab 0 ratings
1 star 2 stars 3 stars 4 stars 5 stars
comments

Are You There Tab

			"Are You There" by Oleander

*Tuning: Half Step Down & Drop D*


Intro:

Guitar 1
eb|----------------------------------------------|
bb|---333333333333333333333333333333333^---------|
gb|---777777777777777777777777777777777^---------|
db|----------------------------------------------|
ab|----------------------------------------------|
Db|----------------------------------------------|

Guitar 2 (* = Harmonic)
eb|----------------------------------------------|
bb|----------------------------------------------| Played
gb|----------------------------------------------|
db|---0--0-0--8-0-----------0--0-0--8-*0---------| Twice
ab|---0--0-0--8-0-----------0--0-0--8-*0---------|
Db|---0--0-0--8-0-----------0--0-0--8-*0---------|

PreVerse:

eb|----------------------------------------------|
bb|----------------------------------------------|
gb|----------------------------------------------|
db|---0--0-0--8--0-0--8--0-0--8--0--8--0--8------|
ab|---0--0-0--8--0-0--8--0-0--8--0--8--0--8------|
Db|---0--0-0--8--0-0--8--0-0--8--0--8--0--8------|

Verse: (Palm Muted)

eb|----------------------------------------------|
bb|----------------------------------------------|
gb|----------------------------------------------|
db|---12-12-12-12-12-12-12-12--8-8-8-8-8-8-8-8---|
ab|---12-12-12-12-12-12-12-12--8-8-8-8-8-8-8-8---|
Db|---12-12-12-12-12-12-12-12--8-8-8-8-8-8-8-8---|

Chorus:

eb|-------------------------------------------------------------------------------------------------|
bb|-------------------------------------------------------------------------------------------------|
gb|--------------55555555-------------77777777-/10-------------55555555-------7-55-7-55-7-5-7-5-7---|
db|---3-3-x-x-x--55555555--5-5-x-x-x--77777777-/10--3-3-x-x-x--55555555--5-5--7-55-7-55-7-5-7-5-7---|
ab|---3-3-x-x-x--33333333--5-5-x-x-x--55555555-/8---3-3-x-x-x--33333333--5-5--5-55-5-55-5-5-5-5-5---|
Db|---3-3-x-x-x------------5-5-x-x-x----------------3-3-x-x-x------------5-5------------------------|

Solo 1: (Immediately after Chorus w/ PreVerse background)

eb|-------------------------------------------------------------------------------------------------|
bb|-------------------------------------------------------------------------------------------------|
gb|---10-10-10-10-10-10-10-10-9-9-9-9-9-9-9-9-9-9-12-12-12-12-12-12-12-12-14-14-14-14-14-14-14-14---|
db|-------------------------------------------------------------------------------------------------|
ab|-------------------------------------------------------------------------------------------------|
Db|-------------------------------------------------------------------------------------------------|

Solo 2:

Guitar 1
eb|---------------------------------------------------------------------------------|
bb|---------------------------------------------------------------------------------|
gb|---10-10-10-10-10-10-10-10-7-7-7-7-7-7-7-7-5-5-5-5-5-5-5-5-3-3-3-3-3-3-3-3-------|
db|---10-10-10-10-10-10-10-10-7-7-7-7-7-7-7-7-5-5-5-5-5-5-5-5-3-3-3-3-3-3-3-3-------|
ab|---8--8--8--8--8--8--8--8--5-5-5-5-5-5-5-5-3-3-3-3-3-3-3-3-1-1-1-1-1-1-1-1-------|
Db|---------------------------------------------------------------------------------|
[ Tab from: http://www.guitartabs.cc/tabs/o/oleander/are_you_there_tab.html ]
Guitar 2
eb|---------------------------------------------------------------------------------|
bb|---------------------------------------------------------------------------------|
gb|---14-14-14-14-14-14-14-14-14-14-14-14--/10---\9~~~~~-7~~~~~---/10---\7~~~~------|
db|---------------------------------------------------------------------------------|
ab|---------------------------------------------------------------------------------|
Db|---------------------------------------------------------------------------------|

Guitar 1
eb|-----------------------------------------------------------   Played    ---------|
bb|---10-10-10-10-10-10-10-10-7-7-7-7-7-7-7-7-5-5-5-5-5-5-5-5-[3-2-3-2-3-2]---------|
gb|---10-10-10-10-10-10-10-10-7-7-7-7-7-7-7-7-5-5-5-5-5-5-5-5-[3-2-3-2-3-2]---------|
db|---8--8--8--8--8--8--8--8--5-5-5-5-5-5-5-5-3-3-3-3-3-3-3-3-[1-0-1-0-1-0]---------|
ab|-----------------------------------------------------------   Twice     ---------|
Db|-----------------------------------------------------------             ---------|

Guitar 2
eb|---------------------------------------------------------------------------------|
bb|---------------------------------------------------------------------------------|
gb|---/14~~~~~-14--\12~~--\10~~---/14~~--\12~~--\10~~--/14~~--\10~~~~~--------------|
db|---------------------------------------------------------------------------------|
ab|---------------------------------------------------------------------------------|
Db|---------------------------------------------------------------------------------|

Guitar 1 (Repeated throughout the rest of the solo)
eb|---------------------------------------------------------------------------------|
bb|---------------------------------------------------------------------------------|
gb|--------------55555555-------------77777777--------------------------------------|
db|---3-3-x-x-x--55555555--5-5-x-x-x--77777777--------------------------------------|
ab|---3-3-x-x-x--33333333--5-5-x-x-x--55555555--------------------------------------|
Db|---3-3-x-x-x------------5-5-x-x-x------------------------------------------------|

Guitar 2
eb|---------------------------------------------------------------------------------|
gb|---------------------------------------------------------------------------------|
bb|---------------------------------------------------------------------------------|
db|---7-7-8-7------------7-8-7------------------------------------------------------|
ab|----------10-8-10-----------10-8-10-----------8-10-8-8h10p8---12-10-12-10--------|
Db|------------------12----------------10--10-12------------------------------------|

eb|---------------------------------------------------------------------------------|
bb|-------------------10-10-11-10-------------10-11-10------------------------------|
gb|----------10-12-12-------------12-10-12-------------12-10-12-----------10-12-10--|
db|---/10-12-------------------------------12-------------------10--10-12-----------|
ab|---------------------------------------------------------------------------------|
Db|---------------------------------------------------------------------------------|

eb|-------------------------------------13-15-15------------------------------------|
bb|---------------10-------10-----13-15---------------------------------------------|
gb|---10h12-10h12----12-12----12----------------------------------------------------|
db|---------------------------------------------------------------------------------|
ab|---------------------------------------------------------------------------------|
Db|---------------------------------------------------------------------------------|

Intro
PreVerse
Verse
PreVerse
Verse
Chorus
Solo 1
Verse
Verse
Chorus
Solo2
Chorus
Chorus

So yeah... Three hours later, and I'm done.  
This is what I do when I should be doing homework.  
This song is phat, and I would say this tab is 99.9% correct, 
so have fun with it.  Send corrections and nude photos to 
Virii_116@Hotmail.com.

[Poor Andy is Pimp]                        -Sean Rippen-  





Comments