Old Mans Child - Swallowed By A Burried One Chords & Tabs

 

Swallowed By A Burried One Chords & Tabs

Old Mans Child Chords & Tabs

Version: 1 Type: Tab 0 ratings
1 star 2 stars 3 stars 4 stars 5 stars
comments

Swallowed By A Burried One Tab

Artist: Old Man's Child
Title: Swallowed by a burried one
Album: Born of the flickering

Tabbed by elc (elc@o2.pl;elc@poczta.onet.pl)

Riff 1, tremolo picking
e|-------------------------------------------------|
B|-------------------------------------------------|
G|-------------------------------------------------|
D|-------------------------------------7-----------|
A|-109-7-7-9-109-7-----7-9-109-7-7-9-10--109-9-9-9-|
E|-----------------1010----------------------------|

Riff 2, "normal" picking,
e|-------------------------------------------------|
B|-------------------------------------------------|
G|-------------------------------------------------|
D|-------------------7---------------------7-------|
A|-109-7-109-7-109-10----9-109-7-109-7-9-10--9-----|
E|-------------------------------------------------|

Riff 3,
e|-------------------------------------------------|
B|-------------------------------------------------|
G|-------------------------------------------------|
D|-------------------------------------7-----------|
A|-7-----9-----10----9-----10----9---------10---9--|
E|---0-0---0-0---0-0---0-0---0-0---0-0-------------|
pm   . .   . .   . .   . .   . .   . .

e|-------------------------------------------------|
B|-------------------------------------------------|
G|-------------------------------------------------|
D|-------------------------------------------------|
A|-7-----9-----10----9-----10----9-----9---10---9--|
E|---0-0---0-0---0-0---0-0---0-0---0-0-------------|
pm   . .   . .   . .   . .   . .   . .

Riff 4, let ring every note,
e|-------------------------------------------------|
B|-------------------8-----------------------7-----|
G|-----------------9---9-------------------8---8---|
D|---------------9-------9---------------8-------8-|
A|-------------7-----------------------6-----------|
E|-0-----------------------0-----------------------|

Riff 1

Riff 2

Riff 3
[ Tab from: http://www.guitartabs.cc/tabs/o/old_mans_child/swallowed_by_a_burried_one_tab.html ]
Riff 5, timing is correct but if You should find it difficult, listen to song
e|-------------------------------------------------|
B|-------------------------------------------------|
G|-------------------------------------------------|
D|-----------------7-------------------------------|
A|-----7-10--7-------9---------6-9---6-7---109---6-|
E|-0-----------8---------8-7-----------------------|

e|-------------------------------------------------|
B|-------------------------------------------------|
G|-------------------------------------------------|
D|-----------------7-------------------------------|
A|-----7-10--7-------9---------6-9---6-7-7-7-6-6-6-|
E|-0-----------8---------8-7-----------------------|

Riff 6
e|-------------------------------------------------|
B|-------------------------------------------------|
G|-------------------------------------------------|
D|-------------------------------------------------|
A|-7---109---6-7---109---6-7---109---6-7---109---6-|
E|-------------------------------------------------|

Riff 4

Riff 7, guitar 1 is playing riff 4,
e|-------------------------------------------------|
B|-------------------------------------------------|
G|-------------------------------------------------|
D|-------------9-----------10----9---7-------------|
A|-7-----------------------------------10-----9----|
E|-------------------------------------------------|

e|-------------------------------------------------|
B|-------------------------------------------------|
G|-------------------------------------------------|
D|-------------------------------7-----------------|
A|-7-----------------------10--------109------6----|
E|-------------7-----------------------------------|

e|-------------------------------------------------|
B|-------------------------------------------------|
G|-------------------------------------------------|
D|-------------9-----------10----9---7-------------|
A|-7-----------------------------------10-----9----|
E|-------------------------------------------------|

e|-------------------------------------------------|
B|-------------------------------------------------|
G|-------------------------9-----7-----------------|
D|-----------------------------------109-----------|
A|-7-----------------------------------------------|
E|-------------7-----------------------------------|

Riff 6

Riff 1

Riff 2

Riff 3
Comments