Old Mans Child - Passage To Pandemonium Chords & Tabs

 

Passage To Pandemonium Chords & Tabs

Old Mans Child Chords & Tabs

Version: 1 Type: Tab 0 ratings
1 star 2 stars 3 stars 4 stars 5 stars
comments

Passage To Pandemonium Tab

            
                 "Passage To Pandemonium" by: Old Manīs Child
                      From the Album:  REVELATION 666
                          
                      Tabbed by: Andre Lindgren (Finland)
                                 althor@iobox.fi


   Standard tuning
   Palm-muted notes are marked with these .........

   Riff 1
   |---------|         |---------|
   |---------|         |---------|
   |---------|         |---------|
   |-7-----6-|         |-10----9-|
   |---5-5---| [ Tab from: http://www.guitartabs.cc/tabs/o/old_mans_child/passage_to_pandemonium_tab.html ]
   Riff 5
   |-----------------------------------------|
   |-----------------------------------------|
   |-----------------------------------------|
   |---2-4-5-4---2-4-5-4---2-4-5-4---2-4-5-4-|
   |--2---------2---------2---------2--------|   "Play fast"
   |-0---------0---------0---------0---------|
   | ...       ...       ...       ...
   |-----------------------------------------|
   |-----------------------------------------|
   |-----------------------------------------|
   |---------------------5-------------4-----|
   |-2-------------------3-------------2-----|
   |-0---------------------------------------|

   
   Riff 3

   Riff 6                       /-Every second time-\
   |-----------------------| |-------------------------|
   |-----------------------| |-------------------------|
   |-----------------------| |-------------------------|
   |-----------------------| |-------------------------|
   |-8x-5-7-4--5-7-8-7-5-7-| |-8x-5-7-4-44-4-44-4-44-4-|
   |-6x-3-5-2--3-5-6-5-3-5-| |-6x-3-5-2-22-2-22-2-22-2-|
   |                                    ..   ..   ..
   |-----------------------| |-------------------------|
   |-----------------------| |-------------------------|
   |-----------------------| |-------------------------|
   |-----------------------| |-------------------------|
   |-8x-5-7-4--5-7-8-7-5-7-| |-8x-5-7-4-44-4-44-4-44-4-|
   |-6x-3-5-2--3-5-6-5-3-5-| |-6x-3-5-2-22-2-22-2-22-2-|
                                        ..   ..   ..



   Riff 7
   |-----------------|        |-------------------|
   |-----------------|        |-------------------|
   |-----------------|        |-------------------|
   |-4-4-4-4-4-4/5\4-|        |-4-4-4-4-4-4/5\4-2-|
   |-2-2-2-2-2-2/3\2-| 
							
													
Comments