Old Mans Child - My Kingdom Will Come Chords & Tabs

 

My Kingdom Will Come Chords & Tabs

Old Mans Child Chords & Tabs

Version: 1 Type: Tab 0 ratings
1 star 2 stars 3 stars 4 stars 5 stars
comments

My Kingdom Will Come Tab

                 OLD MAN'S CHILD - MY KINGDOM WILL COME

Tabbed: Esa Mikkola (Finland)

Palm-muted notes are marked with these .....

E-mail: esamikkola@hotmail.com


Intro riff

|-------------------------------------|-------|     
|-------------------------------------|-------|
|-----7-----7---7-------7-----7---7---|--9--6-|
|---8-----8-----------7-----7---------|-------|
|-5-----5-----5-----5-----5-----5-----|-------|
|-------------------------------------|-------|
  . .   . .   .     . .   . .   .       

play few times that and then when drums
come in it's almost same riff but without those
palm-mutes. Just strum those chords above.

verse
 
|----------------------------------------------------|
|----------------------------------------------------|
|-----7-----7---7-----------------------3-----3---3--|
|-----7-----7---7------5-----5---5------3-----3---3--|
|-5-5-5-5-5-5-5-5------5-----5---5--1-1-1-1-1-1-1-1--|
|------------------3-3-3-3-3-3-3-3-------------------|
  . .   . .   .    . .   . .   .    . .   . .   .


|-----------------------------------------------------|
|-----------------------------------------------------|
|-----2-----2---2-------7-----7---7-------------------|
|-----2-----2---2-------7-----7---7------5-----5---5--|
|-0-0-0-0-0-0-0-0---5-5-5-5-5-5-5-5------5-----5---5--|
|------------------------------------3-3-3-3-3-3-3-3--|
  . .   . .   .     . .   . .   .    . .   . .   .

|-----------------------------------|
|-----------------------------------|
|-----2-----2---2-----2-----2---2---|
|-----2-----2---2-----2-----2---2---|
|-0-0-0-0-0-0-0-0-0-0-0-0-0-0-0-0---|
|-----------------------------------|
  . .   . .   .   . .   . .   .

Lead guitar melody 

|---------------------------------------------------------------|
|---------------------8-----8-----8-----------------------------|
|-10-7---10-7---10------7-----7--------15-12----15-12----15-----|
|------7------7----7------8-----8---8--------12-------12----12--|
|---------------------------------------------------------------|
|---------------------------------------------------------------|

|------------------------------------------------------------|
|-------------------------------------------8-----8-----8----|
|-14-9----14-9----14-----10-7---10-7---10-----7-----7--------|
|------11------11----11-------7------7----7-----8-----8---8--|
|------------------------------------------------------------|
|------------------------------------------------------------|

|---------------------------------------|
|---------------------------10------10--|
|-9-6---9-6---9----9-6---9-----9--------|
|-----7-----7---7------7---------11-----|
|---------------------------------------|
|---------------------------------------|



Riff 1

|--------------------------------------------------|
|--------------------------------------------------|
|--------------------------------------------------|
|-7------------------------------------------------|
|-5-555-555-555--7-8--------------2-3--------------|
|----------------5-6-666-666-666--0-1-111-111-111--|
    ... ... ...      ... ... ...      ... ... ...
[ Tab from: http://www.guitartabs.cc/tabs/o/old_mans_child/my_kingdom_will_come_tab.html ]
|----------------------------------------------------|
|----------------------------------------------------|
|----------------------------------------------------|
|------------------6-7-------------------------------|
|-6-7--------------4-5-555-555-555--7-8--------------|
|-4-5-555-555-555-------------------5-6-666-666-666--|
      ... ... ...      ... ... ...      ... ... ...

|--------------------------------------------------|
|--------------------------------------------------|
|--------------------------------------------------|
|----------------------------------6---------------|
|-2-3--------------6-7-888-777-555-4-to beginning--|
|-0-1-111-111-111--4-5-----------------------------|
      ... ... ...      ... ... ...

chorus

Rhythm guitar

|-----------------------|
|-----------------------|
|-7-----3-----------2---|
|-7-----3-----3-----2---|
|-5-----1-----3-----0---|
|-------------1---------|

Lead guitar

|-----------------------------------------------|
|-----------------------------------------------|
|-7---9-10-9-7-2-3---5-7-5-3--------------------|
|----------------------------2-3---5-7-5-3-6-7--|
|-----------------------------------------------|
|-----------------------------------------------|

|-------------------------------------------|
|-------------------------------------------|
|-9-10-9-7-6--this ending-is-different------|
|-------------in the end but you can figure-|
|-------------that out. --------------------|
|-------------------------------------------|

Then intro riff and verse again

Riff 2

|--------------------------------------------------|
|--------------------------------------------------|
|---------------5-3-----3------3-7-5-----5-----5-8-|
|-7-----7---4-7-----5-5------5-------7-7-----7-----|
|---5-5---5----------------5---------------8-------|
|--------------------------------------------------|

|----------------------------------------------|
|----------------------------------------------|
|-7-----7------7-10-8-------8-----5-8-7-----7--|
|---8-8------8--------10-10-----7-------8-8----|
|---------10------------------8----------------|
|----------------------------------------------|

|-----------------------------------------|
|-----------------------------------------|
|-----3-7-3-0-0-5-0-0-7-0-0-8-0-0-7-0-5-0-|
|---5-------------------------------------|
|-5---------------------------------------|
|-----------------------------------------|

|----------------------------------|
|----------------------------------|
|-3-0-0-5-0-0-7-0-0-8-0-0-7-0-5-0--|
|----------------------------------|
|----------------------------------|
|----------------------------------|

Riff 3

|-------------------------------------------|
|-------------------------------------------|
|-----------5-------------------------------|
|-5---7-8-----7---8-5-------4-7---8-7---4-5-| 
|-----------------------5-------------------|
|-------------------------------------------|

Play that few times and then

|--------------------------------------------|
|--------------------------------------------|
|--------------------------------------------|
|------------5-------------------------------|
|-5---7-8------7---8-5-------4-7---8-7---4-5-|
|------------------------5-------------------|

Then riff 1 , chorus and then finally intro riff
and that's it.
Comments