Old Mans Child - In Black Endless Void Chords & Tabs

 

In Black Endless Void Chords & Tabs

Old Mans Child Chords & Tabs

Version: 1 Type: Tab 0 ratings
1 star 2 stars 3 stars 4 stars 5 stars
comments

In Black Endless Void Tab

"In Black Endless Void"  by: Old Man's Child
   From the Album: REVELATION 666

 Tabbed by:  Andre "Althor" Lindgren From Carnifex (Finland)
   ((come.to/carnifex))
  
 Standard tuning
   Palm-muted notes are marked with these  ...

 
Riff 1     "In this riff guitar 2 is just playing low E"  (Tremolo picked)
|----------------------------------------------|
|----------------------------------------------|
|-8-----8------4/5/7-8-----8------5\4/5--------|
|-8-----8------4/5/7-8-----8------5\4/5--------|
|-6-----6------2/3/5-6-----6------3\2/3--------|
|----------------------------------------------|

Riff 2    "Both guitars plays the same" (Tremolo picked)
|----------------------------------------------------------------------------------------------------|
|----------------------------------------------------------------------------------------------------|
|----------------------------------------------------------------------------------------------------|
|-------------------8------------------------------------------8--------------------------------8----|
|-----7-10-9-6--------7-10-9-6--3--6-----7-10-9-6-------------9-7-6----------------------------------|
|-0--------------------------------------------0---------------------0--------------7-6-0-7----------|
                                                                         
Riff 3
|---------------------------------------|
|---------------------------------------|
|---------------------------------------|
|---------------------------------------|
|-2--3-6-5-2-3/8-2--3-6-5-22-3----------|
|-0--1-4-3-0-1/6-0--1-4-3-00-1----------| Guitar 1
|
|---------------------------------------|
|---------------------------------------|
|---------------------------------------|
|---------------------------------------|
|----------------- --3/8------------2-3-|
|-000000000--1/6-000000000-0-1----------|    Guitar 2

Riff 4
|---------|            |----------------------|
|---------|            |----------------------|
|---------|            |----------------------|
|---------|            |----------------------|
|--7--/1--| [ Tab from: http://www.guitartabs.cc/tabs/o/old_mans_child/in_black_endless_void_tab.html ]
Guitar 1
|----------------------------------------------|              
|----------------------------------------------|              
|----------------------------------------------|              
|-----4-5----7-9-------------------------------|           |-8/9-9-9/11-11-|
|---------------------6-7-9-6------------------| 
							
													
Comments