Old 97s - Question Chords & Tabs

 

Question Chords & Tabs

Old 97s Chords & Tabs

Version: 2 Type: Tab 0 ratings
1 star 2 stars 3 stars 4 stars 5 stars
comments

Question Tab

Song: Question
Artist: Old 97's

This song is played in Drop D


e-----0-0--00-0----0-0--00-0----0-0--00-0-----------------3-3--33-3---
B-----1-1--11-1----1-1--11-1----1-1--11-1-----------------3-3--33-3---
G-----0-0--00-0----0-0--00-0----0-0--00-0-----------------0-0--00-0---
D-----2-2--22-2----0-0--00-0----2-2--22-2-----------------0-0--00-0---
A--3------------2------------0-------------------0--------2-2--22-2---
D------------------------------------------5--5-----5--3--3-3--33-3---



e-----3-3-33-3----3-3--33-3-----------------0-0--00-0---0-0--00-0-----
B-----3-3-33-3----3-3--33-3-----------------1-1--11-1---1-1--11-1-----
G-----0-0-00-0----0-0--00-0-----------------0-0--00-0---0-0--00-0-----
D-----0-0-00-0----0-0--00-0-----------------2-2--22-2---0-0--00-0-----
A-----0-0-00-0----2-2--22-2--------0--2--3------------2---------------
D--2--2-2-22-2-0-------------5--5-------------------------------------



e-----0-0--00-0----0-0--00----3-3--33-3----3-3--33-3----3-3--33-3-----
B-----1-1--11-1----1-1--11----3-3--33-3----3-3--33-3----3-3--33-3-----
G-----0-0--00-0----0-0--00----0-0--00-0----0-0--00-0----0-0--00-0-----
D-----2-2--22-2----2-2--22----0-0--00-0----0-0--00-0----0-0--00-0-----
A--0--------------------------2-2--22-2----0-0--00-0----2-2--22-2-----
D---------------5----------3--3-3--33-3-2--2-2--22-2-0----------------



e-----------------0-0--00-0----0-0--00-0-----0-0--00-0----0-0--00-0---
B-----------------1-1--11-1----1-1--11-1-----1-1--11-1----1-1--11-1---
G-----------------0-0--00-0----0-0--00-0-----0-0--00-0----0-0--00-0---
D-----------------2-2--22-2----0-0--00-0-----2-2--22-2----2-2--22-2---
A--------0--2--3------------2-------------0---------------------------
D--5--5------------------------------------------------5--------------


[ Tab from: http://www.guitartabs.cc/tabs/o/old_97s/question_tab_ver_2.html ]
e-----3-3--33-3----3-3--33-3----3-3--33-3----------------3-3--33-3----
B-----3-3--33-3----3-3--33-3----3-3--33-3----------------3-3--33-3----
G-----0-0--00-0----0-0--00-0----0-0--00-0----------------0-0--00-0----
D-----0-0--00-0----0-0--00-0----0-0--00-0----------------0-0--00-0----
A-----2-2--22-2----0-0--00-0----2-2--22-2-------0--------2-2--22-2----
D--3--3-3--33-3-2--2-2--22-2-0------------5--5-----5--3--3-3--33-3----



e-----3-3--33-3-----0-0--00-0----1-1--11-1----3-3--33-3----3-3--33-3--
B-----3-3--33-3-----1-1--11-1----3-3--33-3----3-3--33-3----3-3--33-3--
G-----0-0--00-0-----0-0--00-0----3-3--33-3----0-0--00-0----0-0--00-0--
D-----0-0--00-0-----2-2--22-2----3-3--33-3----0-0--00-0----0-0--00-0--
A-----2-2--22-2--3------------1---------------2-2--22-2----0-0--00-0--
D--5--3-3--33-3----------------------------3--3-3--33-3-2--2-2--22-2--



e-----0-0--00-0----1-1--11-1----3-3--33-3-----0-0--00-0----3-3--33-3--
B-----1-1--11-1----3-3--33-3----3-3--33-3-----1-1--11-1----3-3--33-3--
G-----0-0--00-0----3-3--33-3----0-0--00-0-----0-0--00-0----0-0--00-0--
D-----2-2--22-2----3-3--33-3----0-0--00-0-----2-2--22-2----0-0--00-0--
A--3------------1--1-1--11-1----2-2--22-2--0---------------2-2--22-2--
D----------------------------3--3-3--33-3---------------3--3-3--33-3--


    play this after the second time
e--------------| ----0-0--00-0----0-0--00-0----0-0--00-0----3-3--33-3-
B------------*-| ----1-1--11-1----1-1--11-1----1-1--11-1----3-3--33-3-
G--------------| ----0-0--00-0----0-0--00-0----0-0--00-0----0-0--00-0-
D--------------| ----2-2--22-2----0-0--00-0----2-2--22-2----0-0--00-0-
A-------0--2-*-| -3------------2------------2---------------2-2--22-2-
D-5--5---------| ----------------------------------------3--3-3--33-3-



e----3-3--33-3----3-3--33-3----0-0--00-0----0-0--00-0----0-0--00-0----
B----3-3--33-3----3-3--33-3----1-1--11-1----1-1--11-1----1-1--11-1----
G----0-0--00-0----0-0--00-0----0-0--00-0----0-0--00-0----0-0--00-0----
D----0-0--00-0----0-0--00-0----2-2--22-2----0-0--00-0----2-2--22-2----
A----2-2--22-2----0-0--00-0-3------------2------------0---------------
D-3--3-3--33-3-5--2-2--22-2-------------------------------------------



e-----0-0--00-0----3-3--33-3---3----0-
B-----1-1--11-1----3-3--33-3---3----1-
G-----0-0--00-0----0-0--00-0---0----0-
D-----2-2--22-2----0-0--00-0---0----2-
A------------------2-2--22-2---2----3-
D--5------------3--3-3--33-3-5--------




Tabbed by T.M.
Comments