Ok Go - Skyscrapers Chords & Tabs

 

Skyscrapers Chords & Tabs

Ok Go Chords & Tabs

Version: 1 Type: Bass Tab 0 ratings
1 star 2 stars 3 stars 4 stars 5 stars
comments

Skyscrapers Bass Tab

-----------------------------------------------------------------------------
                           SKYSCRAPERS - Ok Go
-----------------------------------------------------------------------------

This is going to be accurate FOR THE MOST PART. It's actually synthesizer,
not bass, so it's not exact. The synth is actually played *Between Notes*
sometimes. I'll denote this by adding a "v" on the string above right at
that note.

Standard Tuning (EADG)

Intro (first four notes you hear. they're so low you might not even be able
to hear them. can only be played well on a 5-string and an octave lower. I
played and tabbed the higher register here.)

G|-----------|
D|-----------|
A|-4567------|
E|-----------|

Riff One

G|----------------(0 or 1)---------------------------------------------------|
D|-------------------v-------------------------------------------------------|
A|-----------23----3212----2-------------------------------------------------|
E|-0123----35---------------530----------------------------------------------|
[ Tab from: http://www.guitartabs.cc/tabs/o/ok_go/skyscrapers_btab.html ]
Riff Two
                         (7 or 8)
G|----------------(0 or 1)--v------------------------------------------------|
D|-------------------v------7/95---------------------------------------------|
A|-----------23----3202----0-------------------------------------------------|
E|-0123----35-------------------0--------------------------------------------|

Chorus

G|---------------------------------------------------------------------------|
D|---------------------------------------------------------------------------|
A|----5-------6-------7-5-3--------------------------------------------------|
E|-753-----753-----357-------------------------------------------------------|

Chorus Ender

G|---------------------------------------------------------------------------|
D|---------------------------------------------------------------------------|
A|----5-6--------------------------------------------------------------------|
E|-753----0------------------------------------------------------------------|


Play:
Intro
One
Two
One
Two
One
Chorus
Chorus Ender
Chorus
Chorus Ender
One
Two
One
Two
One
Chorus X2
Chorus Ender
Alternate One and Two until fade out


Let me know if I got it wrong or if there's anything I can change.
Comments