Ok Go - Oh Lately Its So Quiet Chords & Tabs

 

Oh Lately Its So Quiet Chords & Tabs

Ok Go Chords & Tabs

Version: 1 Type: Tab

Oh Lately Its So Quiet Tab

   
Oh Lately it's So Quiet - Ok Go


  Intro:

         B
e--7-7-7-7-7-7-7-7--|
B--7-7-7-7-7-7-7-7--|
G--8-8-8-8-8-8-8-8--|
D--9-9-9-9-9-9-9-9--|
A--9-9-9-9-9-9-9-9--|
E--7-7-7-7-7-7-7-7--|

Verse:

          E
e------------------------------|
B------------------------------|
G--9--9--9--9-9--9--9--9--9-9--|
D--9--9--9--9-9--9--9--9--9-9--|
A--7--7--7--7-7--7--7--7--7-7--|
E------------------------------|


(Listen to the song; you should cut some notes short)

[ Tab from: http://www.guitartabs.cc/tabs/o/ok_go/oh_lately_its_so_quiet_tab.html ]
Chorus:
          E              B                E               C#m
e--------------------7-7-7---7-7-7---------------------------------|
B----9-9-9---9-9-9---7-7-7---7-7-7---9-9-9---9-9-9---5-5-5---5-5-5-|
G----9-9-9---9-9-9---8-8-8---8-8-8---9-9-9---9-9-9---6-6-6---6-6-6-|
D--9-9-9-9-9-9-9-9---9-9-9---9-9-9-9-9-9-9---9-9-9-6-6-6-6-6-6-6-6-|
A--7-7-7-7-7-7-7-7-9-9-9-9-9-9-9-9-7-7-7-7-7-7-7-7-4-4-4-4-4-4-4-4-|
E------------------7-7-7-7-7-7-7-7---------------------------------|

         E                  B           E            B      C    D
e--------------------7-7-7---7-7-7-----------------7-7-7-7----------|
B----9-9-9---9-9-9---7-7-7---7-7-7---9-9-9---9-9-9-7-7-7-7-5-5/-7-7-|
G----9-9-9---9-9-9---8-8-8---8-8-8---9-9-9---9-9-9-8-8-8-8-5-5/-7-7-|
D--9-9-9-9-9-9-9-9---9-9-9---9-9-9-9-9-9-9-9-9-9-9-9-9-9-9-5-5/-7-7-|
A--7-7-7-7-7-7-7-7-9-9-9-9-9-9-9-9-7-7-7-7-7-7-7-7-9-9-9-9-3-3/-5-5-|
E------------------7-7-7-7-7-7-7-7-----------------7-7-7-7----------|

/ = slide


Solo:

e-------------------------------------------------|
B-------------------------------------------------|
G-------------------------------------------------|
D--------------9*---------------------------------|
A-------2b-----------------------2b---4p2---2--4--|
E--0---------------4--2------0------------4-------|

*= (im pretty sure its actually feedback but thats the pitch its in)

If there are any problems email me at takeawaysmusic@yahoo.com