Ok Go - Get Over It Chords & Tabs

 

Get Over It Chords & Tabs

Ok Go Chords & Tabs

Version: 4 Type: Tab 0 ratings
1 star 2 stars 3 stars 4 stars 5 stars
comments

Get Over It Tab

     Hey i just heard this song and it rocks! Here's my version, please rate it!

Intro/Verse-

e-----------------------------------------------   
b-----------------------------------------------
g--4-4--------------------222--333--------X4----
d--4-4-xx--4-4-3-2--2--xx 222--333--------------
a--2-2-xx--4-4-3-2--2--xx 000--111--------------
e------xx--2-2-1-0--0--xx ----------------------

After four times (after, "lotta fool scumbags") guitar 2 comes in playing the
same thing, after dropping from 

e---------------
b---------------
g---------------
d---------------
a---------------
e--12\---------- Play the main riff 2 more times then go into the....

..Chorus-

--------------------------------------------------------------
--------------------------------------------------------------
--7----7----------------------------------------------x2------
--7----7----4-4-4-4-4----5----5----7-7-7-7-7-7----------------
--5----5----4-4-4-4-4----5----5----7-7-7-7-7-7----------------
------------2-2-2-2-2----3----3----5-5-5-5-5-5----------------

---------------------------------------------------------------------------
---------------------------------------------------------------------------
--7----7------------------------------------------------4-4-4-4-4-4-4-4----
--7----7--4-4-4-4----5----5----7-7-7-7--5-5-5-5-5-5-5-5-4-4-4-4-4-4-4-4----
--5----5--4-4-4-4----5----5----7-7-7-7--5-5-5-5-5-5-5-5-2-2-2-2-2-2-2-2----
----------2-2-2-2----3----3----5-5-5-5--3-3-3-3-3-3-3-3--------------------
[ Tab from: http://www.guitartabs.cc/tabs/o/ok_go/get_over_it_tab_ver_4.html ]
Then guitar 1 plays the main verse riff and guitar 2 plays something that begins
on a 9 on the G string then goes up to a 10, but i cant quite work out. Then
repeat all that for the second for the second verse and chorus.
Straight after the second chorus guitar one plays the main riff again, and guitar
two plays this, 

e-----------------------------------------------------
b--12(16 times)--14(8 times)--15(4times)--14(4 times)- ~Quick Gap~Then Repeat~
g-----------------------------------------------------
d-----------------------------------------------------
a-----------------------------------------------------
e-----------------------------------------------------

Then after that play this:
Guitar 2
e-----------------------------------------------------
b-----------------------------------------------------
g------9-11~-------9-11~--11-9------------------------
d--9-9---------9-9-------------12-11------------------
a-----------------------------------------------------
e-----------------------------------------------------

No Guitar for the third verse and then back into chorus

Outro-in the last playing of the end of the chorus guitar 2 plays this
e-------------------------------------------                    -----------
b-------------------------------------------                    -----------
g--------------------9-9-9-11-11-11-9-9-9-11 Then both guitars  -----4-----
d--11-11-11-12-12-12------------------------ finish on          -----4-----
a-------------------------------------------                    -----2-----
e-------------------------------------------                    -----------

Hope ya enjoy playing it, and rate it!

jk
Comments