Ok Go - Get Over It Chords & Tabs

 

Get Over It Chords & Tabs

Ok Go Chords & Tabs

Version: 3 Type: Tab 0 ratings
1 star 2 stars 3 stars 4 stars 5 stars
comments

Get Over It Tab

Verse-

-----------------------------------------------
-----------------------------------------------
-----------------------------------------X6----
--9----9----444--3--2--2--777--888--99---------
--9----9----444--3--2--2--777--888--99---------
--7----7----222--1--0--0--555--666--77---------


Chorus-
[ Tab from: http://www.guitartabs.cc/tabs/o/ok_go/get_over_it_tab_ver_3.html ]
-----------------------------------------------
-----------------------------------------------
--7--7--------------------------X2-------------
--7--7--4444--5--5--7777-----------------------
--5--5--4444--5--5--7777-----------------------
--------2222--3--3--5555-----------------------

-----------------------------------------------
-----------------------------------------------
--7--7-----------------------------------------
--7--7--4444--5--5--7777--55555555-44444444----
--5--5--4444--5--5--7777--55555555-44444444----
--------2222--3--3--5555--33333333-22222222----


End on-

------
------
------
--9---
--9---
--7---
Comments