Ok Go - Get Over It Chords & Tabs

 

Get Over It Chords & Tabs

Ok Go Chords & Tabs

Version: 2 Type: Tab 0 ratings
1 star 2 stars 3 stars 4 stars 5 stars
comments

Get Over It Tab

Band  : OK Go
Album : OK Go ('2002)
Song  : Get Over It (Track 1/12)

This band is from Chicago, i've seen there cd for sale, downloaded their
songs from the internet, and this song was even background music
on mtv's cribs the other day

first tab....bear with it
[ Tab from: http://www.guitartabs.cc/tabs/o/ok_go/get_over_it_tab_ver_2.html ]
----------------------------------------------------------------
----------------------------------------------------------------
---4-4--x------------2-3-4--------------------------------------
---4-4--x--4-4-4-3-2-2-3-4--------------------------------------
---2-2--x--4-4-4-3-2-0-1-2--------------------------------------
--------x--2-2-2-1-0--------------------------------------------

----------------------------------------------------------------
----------------------------------------------------------------
---4-4--x------------2-3-4--------------------------------------
---4-4--x--4-4-4-3-2-2-3-4--------------------------------------
---2-2--x--4-4-4-3-2-0-1-2--------------------------------------
--------x--2-2-2-1-0--------------------------------------------

that's all i've got
Comments