Ok Go - Get Over It Chords & Tabs

 

Get Over It Chords & Tabs

Ok Go Chords & Tabs

Version: 5 Type: Bass Tab 0 ratings
1 star 2 stars 3 stars 4 stars 5 stars
comments

Get Over It Bass Tab

OK Go
Get Over It
Bass Tab
Well, everybody, I was frustrated with the lack of the bass solo/bridge in almost EVERY
\TAB of this song. When I did find one, it was horribly incorrect, no ofense to my fellow
bassists. After listening, this is what I got:

Key:
p: pull off
h: hammer on
~: let ring
[ Tab from: http://www.guitartabs.cc/tabs/o/ok_go/get_over_it_btab_ver_5.html ]
Chorus:            End Chorus:         End Song:
G|----------------|-------------------|--------------------------|
D|----------------|--5~---5~---4~-----|--5~---5~---4~------------|
A|5~5~~-----------|---------------0011|---------------------1~2~~|
E|-----2223~335555|3~--333~-32~--2----|3~--333~-32~--23~4~5~-----|

Verse/Post-Choruses:
G|----------------|
D|----------------|
A|2-2---------0011|
E|-----2210-0-----|

Bass solo / Bridge
G|-------------------|-------------2--|
D|-432-------4p2hp---|-432-------44---|
A|2---5--452------554|2---5--452----5~|
E|-----2-------------|-----2----------|

Bass Verse:
G|----------------|
D|----------------|
A|2~~~~-------0~1~|
E|-----2-10~0~----|

Order:
Chorus: 3
End Chorus: 1
Post Chorus (Guitar Solo): 2
Verse: 4
Chorus: 3
End Chorus: 1
Post Chorus: 2
Bass Solo/Bridge: 1
Bass Verse:4
Chorus: 7
End Song: 1
Comments