Ok Go - Get Over It Chords & Tabs

 

Get Over It Chords & Tabs

Ok Go Chords & Tabs

Version: 3 Type: Bass Tab 0 ratings
1 star 2 stars 3 stars 4 stars 5 stars
comments

Get Over It Bass Tab

1st tab dont complain

Verse

g-----------------------------------------------
d-----------------------------------------------
a-----------------------------------------------
e--7----7----222--1--0--0--555--666--77--------- 

chorus
[ Tab from: http://www.guitartabs.cc/tabs/o/ok_go/get_over_it_btab_ver_3.html ]
g-----------------------------------------------
d-----------------------------------------------
a--5--5-----------------------------------------
e--------2222--3--3--5555-----------------------

g-----------------------------------------------
d-----------------------------------------------
a--5--5-----------------------------------------
e--------2222--3--3--5555--33333333-22222222----

end on

g------
d------
a------
e--7---

order- work out how many times you do each one yourself

verse
chorus
verse
chorus
verse
chorus
end on
Comments