Ok Go - Get Over It Chords & Tabs

 

Get Over It Chords & Tabs

Ok Go Chords & Tabs

Version: 2 Type: Bass Tab 0 ratings
1 star 2 stars 3 stars 4 stars 5 stars
comments

Get Over It Bass Tab

tabbed by: " J. Fattie "

OK Go - Get Over It! [bass]

Intro; Main Riff
g|----------------------------|
d|----------------------------|
a|-2-2------------0-0-0-1-1-1-|
e|------2-2-1-0-0-------------|
[ Tab from: http://www.guitartabs.cc/tabs/o/ok_go/get_over_it_btab_ver_2.html ]
Chorus
g|-----------------------------|
d|-----------------------------|
a|-5-5-5-5---------------------|
e|---------2-2-2-3-3-3-5-5-5-5-|
[i am not completely sure with this part...i tabbed from knowing this outta my
head cause my band covers this song and i am the bassist, cept i dont have my
bass right here to look at it and i'm kinda lazy, but the notes are right, i just
am not sure about how many times and stuff...look it up...]

later
Comments