Ok Go - Dont Ask Me Chords & Tabs

 

Dont Ask Me Chords & Tabs

Ok Go Chords & Tabs

Version: 1 Type: Tab 0 ratings
1 star 2 stars 3 stars 4 stars 5 stars
comments

Dont Ask Me Tab

2nd track off self titled albulm.  Cool albulm great lyrics. 
Just thought I'd be first to write a tab for something other 
than Get Over It!  StartStaticPunk@aol.com
-----
Standard tuning
Easy song
Probably wrong
-----
intro/verse
 ----------------------------
 ---------------------------- repeat
 ----------------------------   as
 --9-4-6-11-11-11-14-14-14--- needed
 --9-4-6-11-11-11-14-14-14---
 --7-2-4-9--9--9--12-12-12---
[ Tab from: http://www.guitartabs.cc/tabs/o/ok_go/dont_ask_me_tab.html ]
Quit acting so friendly. Dont nod, dont laugh all nicely
Dont think you'll upend me.  Don't sigh, dont sip your iced tea
Dont say "it's been a while." And dont flash that stupid smile
-----
Chorus
--------------------------------
--------------------------------
--------------------------------
--9-4-6-4----------------------- x 2
--9-4-6-4-----------------------
--7-2-4-2-----------------------

Don't ask me, Don't ask me, Don't ask me, ask me, ask me how i've been
-----
Interlude thingy - same as intro/verse
-----
verse again
Dont think I've forgotten.  You never liked that necklace
So cordial, so rotten.  Kiss, kiss, let's meet for breakfast
Don't show up so on time.  Don't show up so on time
Don't act like you're so kind
----
Chorus
-----
bridge-no guitar
Don't sit there and play just.  So frank, so straight so candid
So thoughtful, so gracious. So sound so evenhanded
Don't be so damn benign.  And don't waste my fucking time
----
Chorus
----
End on
-------
-------
-------
-9-----
-9-----
-7-----

well...i think it sounds okay.  -Dawn
Comments