Ok Go - A Million Ways Chords & Tabs

 

A Million Ways Chords & Tabs

Ok Go Chords & Tabs

Version: 1 Type: Tab

A Million Ways Tab

Awesome tune from their new album, I got frustrated that it hadn't been tabbed
anywhere yet. So here is the basic attempt that I threw together in the last 5
mins, just throw on a bit of distortion and you're set.

INTRO
Guitar 1
-12-12----12-12----12-12-12-12----12-12-------|
-12-12----12-12----12-12-12-12----12-12----x--|5 [continues behind lead]
-12-12----12-12----12-12-12-12----12-12-------|
----------------------------------------------|
----------------------------------------------|
----------------------------------------------|
[ Tab from: http://www.guitartabs.cc/tabs/o/ok_go/a_million_ways_tab.html ]
Guitar 2
---------------------------------------------------------------------|
-------10/12-------12-12---------------------------------------------|
-------------------------14-12-------12/14-------14-14-12------------|
-12h14-------12h14-------------12h14-------12h14----------14-12-14---|
---------------------------------------------------------------------|
---------------------------------------------------------------------|


---------------------------------------------------------------------|
-------10/12-------12-12---------------------------------------------|
-------------------------14-12-------12/14-------14-14-12------------|
-12h14-------12h14-------------12h14-------12h14----------14-12-14---|
---------------------------------------------------------------------|
---------------------------------------------------------------------|

"Sit back, matter of fact..."


Now go buy the album, Oh No, which is out now. WD.